ISO-10303-21;
HEADER;
/* Generated by software containing ST-Developer
 * from STEP Tools, Inc. (www.steptools.com) 
 */
/* OPTION: using custom schema-name function */

FILE_DESCRIPTION(
/* description */ (''),
/* implementation_level */ '2;1');

FILE_NAME(
/* name */ '100740365ugm000_a.stp',
/* time_stamp */ '2017-09-26T12:27:05+02:00',
/* author */ (''),
/* organization */ (''),
/* preprocessor_version */ 'ST-DEVELOPER v16',
/* originating_system */ 'SIEMENS PLM Software NX 10.0',
/* authorisation */ '');

FILE_SCHEMA (('AUTOMOTIVE_DESIGN { 1 0 10303 214 3 1 1 1 }'));
ENDSEC;

DATA;
#10=GEOMETRICALLY_BOUNDED_WIREFRAME_SHAPE_REPRESENTATION(
'100740365ugm000_a-None',(#33),#515);
#11=PROPERTY_DEFINITION_REPRESENTATION(#15,#13);
#12=PROPERTY_DEFINITION_REPRESENTATION(#16,#14);
#13=REPRESENTATION('',(#17),#515);
#14=REPRESENTATION('',(#18),#515);
#15=PROPERTY_DEFINITION('pmi validation property','',#23);
#16=PROPERTY_DEFINITION('pmi validation property','',#23);
#17=VALUE_REPRESENTATION_ITEM('number of annotations',COUNT_MEASURE(0.));
#18=VALUE_REPRESENTATION_ITEM('number of views',COUNT_MEASURE(0.));
#19=SHAPE_REPRESENTATION_RELATIONSHIP('None',
'relationship between 100740365ugm000_a-None and 100740365ugm000_a-Non
e',#32,#21);
#20=SHAPE_REPRESENTATION_RELATIONSHIP('None',
'relationship between 100740365ugm000_a-None and 100740365ugm000_a-Non
e',#32,#10);
#21=ADVANCED_BREP_SHAPE_REPRESENTATION('100740365ugm000_a-None',(#39),#515);
#22=SHAPE_DEFINITION_REPRESENTATION(#23,#32);
#23=PRODUCT_DEFINITION_SHAPE('','',#24);
#24=PRODUCT_DEFINITION(' ','',#26,#25);
#25=PRODUCT_DEFINITION_CONTEXT('part definition',#31,'design');
#26=PRODUCT_DEFINITION_FORMATION_WITH_SPECIFIED_SOURCE(' ',' ',#28,
 .NOT_KNOWN.);
#27=PRODUCT_RELATED_PRODUCT_CATEGORY('part','',(#28));
#28=PRODUCT('100740365ugm000_a','100740365ugm000_a',' ',(#29));
#29=PRODUCT_CONTEXT(' ',#31,'mechanical');
#30=APPLICATION_PROTOCOL_DEFINITION('international standard',
'automotive_design',2010,#31);
#31=APPLICATION_CONTEXT(
'core data for automotive mechanical design processes');
#32=SHAPE_REPRESENTATION('100740365ugm000_a-None',(#319),#515);
#33=GEOMETRIC_CURVE_SET('None',(#434));
#34=SURFACE_STYLE_USAGE(.BOTH.,#35);
#35=SURFACE_SIDE_STYLE('',(#36));
#36=SURFACE_STYLE_FILL_AREA(#37);
#37=FILL_AREA_STYLE('',(#38));
#38=FILL_AREA_STYLE_COLOUR('',#318);
#39=MANIFOLD_SOLID_BREP('',#40);
#40=CLOSED_SHELL('',(#60,#61,#62,#63,#64,#65,#66,#67,#68,#69,#70,#71,#72,
#73,#74));
#41=CYLINDRICAL_SURFACE('',#330,14.7500000000024);
#42=CYLINDRICAL_SURFACE('',#333,14.7500000000006);
#43=CYLINDRICAL_SURFACE('',#336,14.7500000000005);
#44=CYLINDRICAL_SURFACE('',#339,14.7499999999981);
#45=CYLINDRICAL_SURFACE('',#342,14.7500000000002);
#46=CYLINDRICAL_SURFACE('',#345,14.7500000000014);
#47=CYLINDRICAL_SURFACE('',#348,9.53);
#48=FACE_OUTER_BOUND('',#139,.T.);
#49=FACE_OUTER_BOUND('',#140,.T.);
#50=FACE_OUTER_BOUND('',#141,.T.);
#51=FACE_OUTER_BOUND('',#142,.T.);
#52=FACE_OUTER_BOUND('',#143,.T.);
#53=FACE_OUTER_BOUND('',#144,.T.);
#54=FACE_OUTER_BOUND('',#145,.T.);
#55=FACE_OUTER_BOUND('',#146,.T.);
#56=FACE_OUTER_BOUND('',#147,.T.);
#57=FACE_OUTER_BOUND('',#148,.T.);
#58=FACE_OUTER_BOUND('',#149,.T.);
#59=FACE_OUTER_BOUND('',#150,.T.);
#60=ADVANCED_FACE('',(#131,#132),#75,.T.);
#61=ADVANCED_FACE('',(#48),#76,.T.);
#62=ADVANCED_FACE('',(#49),#41,.T.);
#63=ADVANCED_FACE('',(#50),#77,.T.);
#64=ADVANCED_FACE('',(#51),#42,.T.);
#65=ADVANCED_FACE('',(#52),#78,.T.);
#66=ADVANCED_FACE('',(#53),#43,.T.);
#67=ADVANCED_FACE('',(#54),#79,.T.);
#68=ADVANCED_FACE('',(#55),#44,.T.);
#69=ADVANCED_FACE('',(#56),#80,.T.);
#70=ADVANCED_FACE('',(#57),#45,.T.);
#71=ADVANCED_FACE('',(#58),#81,.T.);
#72=ADVANCED_FACE('',(#59),#46,.T.);
#73=ADVANCED_FACE('',(#133,#134),#82,.T.);
#74=ADVANCED_FACE('',(#135,#136),#47,.F.);
#75=PLANE('',#327);
#76=PLANE('',#328);
#77=PLANE('',#331);
#78=PLANE('',#334);
#79=PLANE('',#337);
#80=PLANE('',#340);
#81=PLANE('',#343);
#82=PLANE('',#347);
#83=LINE('',#437,#107);
#84=LINE('',#442,#108);
#85=LINE('',#446,#109);
#86=LINE('',#450,#110);
#87=LINE('',#454,#111);
#88=LINE('',#458,#112);
#89=LINE('',#462,#113);
#90=LINE('',#465,#114);
#91=LINE('',#466,#115);
#92=LINE('',#470,#116);
#93=LINE('',#472,#117);
#94=LINE('',#474,#118);
#95=LINE('',#478,#119);
#96=LINE('',#480,#120);
#97=LINE('',#482,#121);
#98=LINE('',#486,#122);
#99=LINE('',#488,#123);
#100=LINE('',#490,#124);
#101=LINE('',#494,#125);
#102=LINE('',#496,#126);
#103=LINE('',#498,#127);
#104=LINE('',#502,#128);
#105=LINE('',#504,#129);
#106=LINE('',#506,#130);
#107=VECTOR('',#353,1.);
#108=VECTOR('',#356,1.);
#109=VECTOR('',#359,1.);
#110=VECTOR('',#362,1.);
#111=VECTOR('',#365,1.);
#112=VECTOR('',#368,1.);
#113=VECTOR('',#373,1.);
#114=VECTOR('',#374,1.);
#115=VECTOR('',#375,1.);
#116=VECTOR('',#380,1.);
#117=VECTOR('',#383,1.);
#118=VECTOR('',#384,1.);
#119=VECTOR('',#389,1.);
#120=VECTOR('',#392,1.);
#121=VECTOR('',#393,1.);
#122=VECTOR('',#398,1.);
#123=VECTOR('',#401,1.);
#124=VECTOR('',#402,1.);
#125=VECTOR('',#407,1.);
#126=VECTOR('',#410,1.);
#127=VECTOR('',#411,1.);
#128=VECTOR('',#416,1.);
#129=VECTOR('',#419,1.);
#130=VECTOR('',#420,1.);
#131=FACE_BOUND('',#137,.T.);
#132=FACE_BOUND('',#138,.T.);
#133=FACE_BOUND('',#151,.T.);
#134=FACE_BOUND('',#152,.T.);
#135=FACE_BOUND('',#153,.T.);
#136=FACE_BOUND('',#154,.T.);
#137=EDGE_LOOP('',(#155));
#138=EDGE_LOOP('',(#156,#157,#158,#159,#160,#161,#162,#163,#164,#165,#166,
#167));
#139=EDGE_LOOP('',(#168,#169,#170,#171));
#140=EDGE_LOOP('',(#172,#173,#174,#175));
#141=EDGE_LOOP('',(#176,#177,#178,#179));
#142=EDGE_LOOP('',(#180,#181,#182,#183));
#143=EDGE_LOOP('',(#184,#185,#186,#187));
#144=EDGE_LOOP('',(#188,#189,#190,#191));
#145=EDGE_LOOP('',(#192,#193,#194,#195));
#146=EDGE_LOOP('',(#196,#197,#198,#199));
#147=EDGE_LOOP('',(#200,#201,#202,#203));
#148=EDGE_LOOP('',(#204,#205,#206,#207));
#149=EDGE_LOOP('',(#208,#209,#210,#211));
#150=EDGE_LOOP('',(#212,#213,#214,#215));
#151=EDGE_LOOP('',(#216));
#152=EDGE_LOOP('',(#217,#218,#219,#220,#221,#222,#223,#224,#225,#226,#227,
#228));
#153=EDGE_LOOP('',(#229));
#154=EDGE_LOOP('',(#230));
#155=ORIENTED_EDGE('',*,*,#257,.F.);
#156=ORIENTED_EDGE('',*,*,#258,.F.);
#157=ORIENTED_EDGE('',*,*,#259,.T.);
#158=ORIENTED_EDGE('',*,*,#260,.T.);
#159=ORIENTED_EDGE('',*,*,#261,.T.);
#160=ORIENTED_EDGE('',*,*,#262,.T.);
#161=ORIENTED_EDGE('',*,*,#263,.T.);
#162=ORIENTED_EDGE('',*,*,#264,.T.);
#163=ORIENTED_EDGE('',*,*,#265,.T.);
#164=ORIENTED_EDGE('',*,*,#266,.T.);
#165=ORIENTED_EDGE('',*,*,#267,.T.);
#166=ORIENTED_EDGE('',*,*,#268,.T.);
#167=ORIENTED_EDGE('',*,*,#269,.T.);
#168=ORIENTED_EDGE('',*,*,#270,.F.);
#169=ORIENTED_EDGE('',*,*,#271,.T.);
#170=ORIENTED_EDGE('',*,*,#268,.F.);
#171=ORIENTED_EDGE('',*,*,#272,.T.);
#172=ORIENTED_EDGE('',*,*,#273,.F.);
#173=ORIENTED_EDGE('',*,*,#272,.F.);
#174=ORIENTED_EDGE('',*,*,#267,.F.);
#175=ORIENTED_EDGE('',*,*,#274,.F.);
#176=ORIENTED_EDGE('',*,*,#275,.F.);
#177=ORIENTED_EDGE('',*,*,#274,.T.);
#178=ORIENTED_EDGE('',*,*,#266,.F.);
#179=ORIENTED_EDGE('',*,*,#276,.T.);
#180=ORIENTED_EDGE('',*,*,#277,.F.);
#181=ORIENTED_EDGE('',*,*,#276,.F.);
#182=ORIENTED_EDGE('',*,*,#265,.F.);
#183=ORIENTED_EDGE('',*,*,#278,.F.);
#184=ORIENTED_EDGE('',*,*,#279,.F.);
#185=ORIENTED_EDGE('',*,*,#278,.T.);
#186=ORIENTED_EDGE('',*,*,#264,.F.);
#187=ORIENTED_EDGE('',*,*,#280,.T.);
#188=ORIENTED_EDGE('',*,*,#281,.F.);
#189=ORIENTED_EDGE('',*,*,#280,.F.);
#190=ORIENTED_EDGE('',*,*,#263,.F.);
#191=ORIENTED_EDGE('',*,*,#282,.F.);
#192=ORIENTED_EDGE('',*,*,#283,.F.);
#193=ORIENTED_EDGE('',*,*,#282,.T.);
#194=ORIENTED_EDGE('',*,*,#262,.F.);
#195=ORIENTED_EDGE('',*,*,#284,.T.);
#196=ORIENTED_EDGE('',*,*,#285,.F.);
#197=ORIENTED_EDGE('',*,*,#284,.F.);
#198=ORIENTED_EDGE('',*,*,#261,.F.);
#199=ORIENTED_EDGE('',*,*,#286,.F.);
#200=ORIENTED_EDGE('',*,*,#287,.F.);
#201=ORIENTED_EDGE('',*,*,#286,.T.);
#202=ORIENTED_EDGE('',*,*,#260,.F.);
#203=ORIENTED_EDGE('',*,*,#288,.T.);
#204=ORIENTED_EDGE('',*,*,#289,.F.);
#205=ORIENTED_EDGE('',*,*,#288,.F.);
#206=ORIENTED_EDGE('',*,*,#259,.F.);
#207=ORIENTED_EDGE('',*,*,#290,.F.);
#208=ORIENTED_EDGE('',*,*,#291,.T.);
#209=ORIENTED_EDGE('',*,*,#290,.T.);
#210=ORIENTED_EDGE('',*,*,#258,.T.);
#211=ORIENTED_EDGE('',*,*,#292,.T.);
#212=ORIENTED_EDGE('',*,*,#293,.F.);
#213=ORIENTED_EDGE('',*,*,#292,.F.);
#214=ORIENTED_EDGE('',*,*,#269,.F.);
#215=ORIENTED_EDGE('',*,*,#271,.F.);
#216=ORIENTED_EDGE('',*,*,#294,.F.);
#217=ORIENTED_EDGE('',*,*,#293,.T.);
#218=ORIENTED_EDGE('',*,*,#270,.T.);
#219=ORIENTED_EDGE('',*,*,#273,.T.);
#220=ORIENTED_EDGE('',*,*,#275,.T.);
#221=ORIENTED_EDGE('',*,*,#277,.T.);
#222=ORIENTED_EDGE('',*,*,#279,.T.);
#223=ORIENTED_EDGE('',*,*,#281,.T.);
#224=ORIENTED_EDGE('',*,*,#283,.T.);
#225=ORIENTED_EDGE('',*,*,#285,.T.);
#226=ORIENTED_EDGE('',*,*,#287,.T.);
#227=ORIENTED_EDGE('',*,*,#289,.T.);
#228=ORIENTED_EDGE('',*,*,#291,.F.);
#229=ORIENTED_EDGE('',*,*,#257,.T.);
#230=ORIENTED_EDGE('',*,*,#294,.T.);
#231=VERTEX_POINT('',#436);
#232=VERTEX_POINT('',#438);
#233=VERTEX_POINT('',#439);
#234=VERTEX_POINT('',#441);
#235=VERTEX_POINT('',#443);
#236=VERTEX_POINT('',#445);
#237=VERTEX_POINT('',#447);
#238=VERTEX_POINT('',#449);
#239=VERTEX_POINT('',#451);
#240=VERTEX_POINT('',#453);
#241=VERTEX_POINT('',#455);
#242=VERTEX_POINT('',#457);
#243=VERTEX_POINT('',#459);
#244=VERTEX_POINT('',#463);
#245=VERTEX_POINT('',#464);
#246=VERTEX_POINT('',#469);
#247=VERTEX_POINT('',#473);
#248=VERTEX_POINT('',#477);
#249=VERTEX_POINT('',#481);
#250=VERTEX_POINT('',#485);
#251=VERTEX_POINT('',#489);
#252=VERTEX_POINT('',#493);
#253=VERTEX_POINT('',#497);
#254=VERTEX_POINT('',#501);
#255=VERTEX_POINT('',#505);
#256=VERTEX_POINT('',#511);
#257=EDGE_CURVE('',#231,#231,#295,.T.);
#258=EDGE_CURVE('',#232,#233,#83,.T.);
#259=EDGE_CURVE('',#232,#234,#296,.T.);
#260=EDGE_CURVE('',#234,#235,#84,.T.);
#261=EDGE_CURVE('',#235,#236,#297,.T.);
#262=EDGE_CURVE('',#236,#237,#85,.T.);
#263=EDGE_CURVE('',#237,#238,#298,.T.);
#264=EDGE_CURVE('',#238,#239,#86,.T.);
#265=EDGE_CURVE('',#239,#240,#299,.T.);
#266=EDGE_CURVE('',#240,#241,#87,.T.);
#267=EDGE_CURVE('',#241,#242,#300,.T.);
#268=EDGE_CURVE('',#242,#243,#88,.T.);
#269=EDGE_CURVE('',#243,#233,#301,.T.);
#270=EDGE_CURVE('',#244,#245,#89,.T.);
#271=EDGE_CURVE('',#244,#243,#90,.T.);
#272=EDGE_CURVE('',#242,#245,#91,.T.);
#273=EDGE_CURVE('',#245,#246,#302,.T.);
#274=EDGE_CURVE('',#246,#241,#92,.T.);
#275=EDGE_CURVE('',#246,#247,#93,.T.);
#276=EDGE_CURVE('',#240,#247,#94,.T.);
#277=EDGE_CURVE('',#247,#248,#303,.T.);
#278=EDGE_CURVE('',#248,#239,#95,.T.);
#279=EDGE_CURVE('',#248,#249,#96,.T.);
#280=EDGE_CURVE('',#238,#249,#97,.T.);
#281=EDGE_CURVE('',#249,#250,#304,.T.);
#282=EDGE_CURVE('',#250,#237,#98,.T.);
#283=EDGE_CURVE('',#250,#251,#99,.T.);
#284=EDGE_CURVE('',#236,#251,#100,.T.);
#285=EDGE_CURVE('',#251,#252,#305,.T.);
#286=EDGE_CURVE('',#252,#235,#101,.T.);
#287=EDGE_CURVE('',#252,#253,#102,.T.);
#288=EDGE_CURVE('',#234,#253,#103,.T.);
#289=EDGE_CURVE('',#253,#254,#306,.T.);
#290=EDGE_CURVE('',#254,#232,#104,.T.);
#291=EDGE_CURVE('',#255,#254,#105,.T.);
#292=EDGE_CURVE('',#233,#255,#106,.T.);
#293=EDGE_CURVE('',#255,#244,#307,.T.);
#294=EDGE_CURVE('',#256,#256,#308,.T.);
#295=CIRCLE('',#320,9.53);
#296=CIRCLE('',#321,14.7500000000002);
#297=CIRCLE('',#322,14.7499999999981);
#298=CIRCLE('',#323,14.7500000000005);
#299=CIRCLE('',#324,14.7500000000006);
#300=CIRCLE('',#325,14.7500000000024);
#301=CIRCLE('',#326,14.7500000000014);
#302=CIRCLE('',#329,14.7500000000024);
#303=CIRCLE('',#332,14.7500000000006);
#304=CIRCLE('',#335,14.7500000000005);
#305=CIRCLE('',#338,14.7499999999981);
#306=CIRCLE('',#341,14.7500000000002);
#307=CIRCLE('',#344,14.7500000000014);
#308=CIRCLE('',#346,9.53);
#309=PRESENTATION_LAYER_ASSIGNMENT('130','Layer 130',(#434));
#310=PRESENTATION_LAYER_ASSIGNMENT('1','Layer 1',(#39));
#311=STYLED_ITEM('',(#313),#434);
#312=STYLED_ITEM('',(#314),#39);
#313=PRESENTATION_STYLE_ASSIGNMENT((#315));
#314=PRESENTATION_STYLE_ASSIGNMENT((#34));
#315=POINT_STYLE('',#316,POSITIVE_LENGTH_MEASURE(3.),#317);
#316=PRE_DEFINED_POINT_MARKER_SYMBOL('plus');
#317=COLOUR_RGB('Medium Maroon',0.6,0.4,0.4);
#318=COLOUR_RGB('GOLDEN_ORANGE',1.,0.65999847409781,0.);
#319=AXIS2_PLACEMENT_3D('',#433,#349,#350);
#320=AXIS2_PLACEMENT_3D('',#435,#351,#352);
#321=AXIS2_PLACEMENT_3D('',#440,#354,#355);
#322=AXIS2_PLACEMENT_3D('',#444,#357,#358);
#323=AXIS2_PLACEMENT_3D('',#448,#360,#361);
#324=AXIS2_PLACEMENT_3D('',#452,#363,#364);
#325=AXIS2_PLACEMENT_3D('',#456,#366,#367);
#326=AXIS2_PLACEMENT_3D('',#460,#369,#370);
#327=AXIS2_PLACEMENT_3D('',#461,#371,#372);
#328=AXIS2_PLACEMENT_3D('',#467,#376,#377);
#329=AXIS2_PLACEMENT_3D('',#468,#378,#379);
#330=AXIS2_PLACEMENT_3D('',#471,#381,#382);
#331=AXIS2_PLACEMENT_3D('',#475,#385,#386);
#332=AXIS2_PLACEMENT_3D('',#476,#387,#388);
#333=AXIS2_PLACEMENT_3D('',#479,#390,#391);
#334=AXIS2_PLACEMENT_3D('',#483,#394,#395);
#335=AXIS2_PLACEMENT_3D('',#484,#396,#397);
#336=AXIS2_PLACEMENT_3D('',#487,#399,#400);
#337=AXIS2_PLACEMENT_3D('',#491,#403,#404);
#338=AXIS2_PLACEMENT_3D('',#492,#405,#406);
#339=AXIS2_PLACEMENT_3D('',#495,#408,#409);
#340=AXIS2_PLACEMENT_3D('',#499,#412,#413);
#341=AXIS2_PLACEMENT_3D('',#500,#414,#415);
#342=AXIS2_PLACEMENT_3D('',#503,#417,#418);
#343=AXIS2_PLACEMENT_3D('',#507,#421,#422);
#344=AXIS2_PLACEMENT_3D('',#508,#423,#424);
#345=AXIS2_PLACEMENT_3D('',#509,#425,#426);
#346=AXIS2_PLACEMENT_3D('',#510,#427,#428);
#347=AXIS2_PLACEMENT_3D('',#512,#429,#430);
#348=AXIS2_PLACEMENT_3D('',#513,#431,#432);
#349=DIRECTION('',(0.,0.,1.));
#350=DIRECTION('',(1.,0.,0.));
#351=DIRECTION('',(5.39341176317067E-17,7.55751542852934E-33,1.));
#352=DIRECTION('',(-1.,-1.08078915410412E-16,9.10138235035051E-17));
#353=DIRECTION('',(-0.866025403784438,0.500000000000001,0.));
#354=DIRECTION('',(0.,0.,1.));
#355=DIRECTION('',(1.,0.,0.));
#356=DIRECTION('',(0.866025403784438,0.500000000000002,0.));
#357=DIRECTION('',(0.,0.,1.));
#358=DIRECTION('',(1.,0.,0.));
#359=DIRECTION('',(5.40359270597891E-16,1.,0.));
#360=DIRECTION('',(0.,0.,1.));
#361=DIRECTION('',(1.,0.,0.));
#362=DIRECTION('',(-0.866025403784439,0.5,0.));
#363=DIRECTION('',(0.,0.,1.));
#364=DIRECTION('',(1.,0.,0.));
#365=DIRECTION('',(-0.866025403784438,-0.500000000000002,0.));
#366=DIRECTION('',(0.,0.,1.));
#367=DIRECTION('',(1.,0.,0.));
#368=DIRECTION('',(0.,-1.,0.));
#369=DIRECTION('',(0.,0.,1.));
#370=DIRECTION('',(1.,0.,0.));
#371=DIRECTION('',(0.,0.,1.));
#372=DIRECTION('',(0.,-1.,0.));
#373=DIRECTION('',(0.,1.,0.));
#374=DIRECTION('',(1.55528299732786E-15,8.97943057173294E-16,1.));
#375=DIRECTION('',(3.01996698510298E-16,-1.74357875179298E-16,-1.));
#376=DIRECTION('',(-1.,0.,0.));
#377=DIRECTION('',(0.,-1.,0.));
#378=DIRECTION('',(0.,0.,-1.));
#379=DIRECTION('',(-1.,0.,0.));
#380=DIRECTION('',(-3.01996698510298E-16,1.74357875179298E-16,1.));
#381=DIRECTION('',(-3.01996698510298E-16,1.74357875179298E-16,1.));
#382=DIRECTION('',(-0.820028310491115,0.572322959519437,-3.47434857591431E-16));
#383=DIRECTION('',(0.866025403784438,0.500000000000002,0.));
#384=DIRECTION('',(2.65007960347684E-31,-1.74357875179265E-16,-1.));
#385=DIRECTION('',(-0.500000000000002,0.866025403784438,0.));
#386=DIRECTION('',(-0.866025403784438,-0.500000000000002,0.));
#387=DIRECTION('',(0.,0.,-1.));
#388=DIRECTION('',(-1.,0.,0.));
#389=DIRECTION('',(-2.65007960347684E-31,1.74357875179265E-16,1.));
#390=DIRECTION('',(-2.65007960347684E-31,1.74357875179265E-16,1.));
#391=DIRECTION('',(0.0856320668673815,0.996326828467457,-1.73717428795682E-16));
#392=DIRECTION('',(0.866025403784439,-0.5,0.));
#393=DIRECTION('',(9.36189765381688E-16,5.40509413055679E-16,-1.));
#394=DIRECTION('',(0.499999999999999,0.866025403784439,0.));
#395=DIRECTION('',(-0.866025403784439,0.499999999999999,0.));
#396=DIRECTION('',(0.,0.,-1.));
#397=DIRECTION('',(-1.,0.,0.));
#398=DIRECTION('',(-9.36189765381688E-16,-5.40509413055679E-16,1.));
#399=DIRECTION('',(-9.36189765381688E-16,-5.40509413055679E-16,1.));
#400=DIRECTION('',(0.905660377358495,0.424003868947996,1.07704805853316E-15));
#401=DIRECTION('',(-5.40359270597891E-16,-1.,0.));
#402=DIRECTION('',(-1.08718811463671E-15,6.27688350645269E-16,-1.));
#403=DIRECTION('',(1.,-5.40359270597891E-16,0.));
#404=DIRECTION('',(5.40366362766775E-16,1.,0.));
#405=DIRECTION('',(0.,0.,-1.));
#406=DIRECTION('',(-1.,0.,0.));
#407=DIRECTION('',(1.08718811463671E-15,-6.27688350645269E-16,1.));
#408=DIRECTION('',(1.08718811463671E-15,-6.27688350645269E-16,1.));
#409=DIRECTION('',(0.820028310491098,-0.572322959519461,-1.25076548732874E-15));
#410=DIRECTION('',(-0.866025403784438,-0.500000000000002,0.));
#411=DIRECTION('',(-5.46039657832669E-30,-7.14867288234898E-16,-1.));
#412=DIRECTION('',(0.500000000000002,-0.866025403784438,0.));
#413=DIRECTION('',(0.866025403784438,0.500000000000002,0.));
#414=DIRECTION('',(0.,0.,-1.));
#415=DIRECTION('',(-1.,0.,0.));
#416=DIRECTION('',(5.46039657832669E-30,7.14867288234898E-16,1.));
#417=DIRECTION('',(5.46039657832669E-30,7.14867288234898E-16,1.));
#418=DIRECTION('',(-0.0856320668673972,-0.996326828467455,7.12241458062206E-16));
#419=DIRECTION('',(0.866025403784438,-0.500000000000001,0.));
#420=DIRECTION('',(-1.55528299732786E-15,-8.97943057173294E-16,-1.));
#421=DIRECTION('',(-0.500000000000001,-0.866025403784438,0.));
#422=DIRECTION('',(0.866025403784438,-0.500000000000001,0.));
#423=DIRECTION('',(0.,0.,-1.));
#424=DIRECTION('',(-1.,0.,0.));
#425=DIRECTION('',(1.55528299732786E-15,8.97943057173294E-16,1.));
#426=DIRECTION('',(-0.905660377358486,-0.424003868948014,1.78928951659567E-15));
#427=DIRECTION('',(0.,0.,-1.));
#428=DIRECTION('',(-1.,4.32315661641649E-16,0.));
#429=DIRECTION('',(0.,0.,-1.));
#430=DIRECTION('',(-1.,0.,0.));
#431=DIRECTION('',(0.,0.,-1.));
#432=DIRECTION('',(-1.,3.29925110200206E-16,0.));
#433=CARTESIAN_POINT('',(0.,0.,0.));
#434=CARTESIAN_POINT('',(-6.45894743502141,0.183404990821147,5.));
#435=CARTESIAN_POINT('',(-6.45894743502141,0.183404990821147,5.));
#436=CARTESIAN_POINT('',(-15.9889474350214,0.183404990821145,5.));
#437=CARTESIAN_POINT('',(-18.0743225490285,-8.69891232848825,5.));
#438=CARTESIAN_POINT('',(-8.06265022246174,-14.4791540412699,5.));
#439=CARTESIAN_POINT('',(-18.3552446475811,-8.53672187926761,5.));
#440=CARTESIAN_POINT('',(-6.45894743502143,0.183404990821395,5.));
#441=CARTESIAN_POINT('',(-4.85524464758109,-14.4791540412699,5.));
#442=CARTESIAN_POINT('',(-3.13465733897588,-13.4857724954825,5.));
#443=CARTESIAN_POINT('',(5.43734977753832,-8.53672187926759,5.));
#444=CARTESIAN_POINT('',(-6.45894743501978,0.183404990820214,5.));
#445=CARTESIAN_POINT('',(7.04105256497859,-5.75902717118121,5.));
#446=CARTESIAN_POINT('',(7.0410525649786,14.0959054406267,5.));
#447=CARTESIAN_POINT('',(7.0410525649786,6.12583715282348,5.));
#448=CARTESIAN_POINT('',(-6.45894743502182,0.18340499082091,5.));
#449=CARTESIAN_POINT('',(5.43734977753829,8.90353186090992,5.));
#450=CARTESIAN_POINT('',(-15.1832361586699,20.8088327020275,5.));
#451=CARTESIAN_POINT('',(-4.85524464758112,14.8459640229122,5.));
#452=CARTESIAN_POINT('',(-6.4589474350214,0.183404990820502,5.));
#453=CARTESIAN_POINT('',(-8.06265022246171,14.8459640229122,5.));
#454=CARTESIAN_POINT('',(-16.6346573389759,9.89691340669735,5.));
#455=CARTESIAN_POINT('',(-18.3552446475812,8.90353186090986,5.));
#456=CARTESIAN_POINT('',(-6.45894743501935,0.183404990819963,5.));
#457=CARTESIAN_POINT('',(-19.9589474350214,6.1258371528235,5.));
#458=CARTESIAN_POINT('',(-19.9589474350214,14.0959054406267,5.));
#459=CARTESIAN_POINT('',(-19.9589474350214,-5.7590271711812,5.));
#460=CARTESIAN_POINT('',(-6.4589474350202,0.183404990821863,5.));
#461=CARTESIAN_POINT('',(-19.0589465200901,14.0959054406267,5.));
#462=CARTESIAN_POINT('',(-19.9589474350214,-13.729094323935,0.));
#463=CARTESIAN_POINT('',(-19.9589474350214,-5.75902717118122,0.));
#464=CARTESIAN_POINT('',(-19.9589474350214,6.1258371528235,0.));
#465=CARTESIAN_POINT('',(-19.9589474350214,-5.75902717118122,0.));
#466=CARTESIAN_POINT('',(-19.9589474350214,6.1258371528235,5.));
#467=CARTESIAN_POINT('',(-19.9589474350214,5.80145625438221,0.));
#468=CARTESIAN_POINT('',(-6.45894743501935,0.183404990819962,0.));
#469=CARTESIAN_POINT('',(-18.3552446475812,8.90353186090986,0.));
#470=CARTESIAN_POINT('',(-18.3552446475812,8.90353186090986,0.));
#471=CARTESIAN_POINT('',(-6.45894743501935,0.183404990819962,5.20417042793042E-15));
#472=CARTESIAN_POINT('',(-9.78323703957614,13.8525827608871,0.));
#473=CARTESIAN_POINT('',(-8.06265022246172,14.8459640229122,0.));
#474=CARTESIAN_POINT('',(-8.06265022246171,14.8459640229122,5.));
#475=CARTESIAN_POINT('',(-8.34357232101429,14.6837735736916,0.));
#476=CARTESIAN_POINT('',(-6.4589474350214,0.183404990820501,0.));
#477=CARTESIAN_POINT('',(-4.85524464758112,14.8459640229122,0.));
#478=CARTESIAN_POINT('',(-4.85524464758112,14.8459640229122,0.));
#479=CARTESIAN_POINT('',(-6.4589474350214,0.183404990820501,3.03576608295941E-15));
#480=CARTESIAN_POINT('',(15.7653407971363,2.94066346555697,0.));
#481=CARTESIAN_POINT('',(5.4373497775383,8.90353186090991,0.));
#482=CARTESIAN_POINT('',(5.43734977753829,8.90353186090992,5.));
#483=CARTESIAN_POINT('',(5.15642767898572,9.06572231013056,0.));
#484=CARTESIAN_POINT('',(-6.45894743502182,0.183404990820913,0.));
#485=CARTESIAN_POINT('',(7.0410525649786,6.1258371528235,0.));
#486=CARTESIAN_POINT('',(7.0410525649786,6.1258371528235,0.));
#487=CARTESIAN_POINT('',(-6.45894743502182,0.183404990820913,-1.38777878078145E-14));
#488=CARTESIAN_POINT('',(7.04105256497858,-13.729094323935,0.));
#489=CARTESIAN_POINT('',(7.04105256497859,-5.7590271711812,0.));
#490=CARTESIAN_POINT('',(7.04105256497859,-5.75902717118121,5.));
#491=CARTESIAN_POINT('',(7.04105256497859,-5.43464627273992,0.));
#492=CARTESIAN_POINT('',(-6.45894743501979,0.183404990820217,0.));
#493=CARTESIAN_POINT('',(5.4373497775383,-8.5367218792676,0.));
#494=CARTESIAN_POINT('',(5.4373497775383,-8.5367218792676,0.));
#495=CARTESIAN_POINT('',(-6.45894743501979,0.183404990820217,1.73472347597681E-14));
#496=CARTESIAN_POINT('',(3.7167629604239,-9.53010314129272,0.));
#497=CARTESIAN_POINT('',(-4.85524464758109,-14.4791540412699,0.));
#498=CARTESIAN_POINT('',(-4.85524464758109,-14.4791540412699,5.));
#499=CARTESIAN_POINT('',(-4.57432254902851,-14.3169635920493,0.));
#500=CARTESIAN_POINT('',(-6.45894743502143,0.183404990821392,0.));
#501=CARTESIAN_POINT('',(-8.06265022246173,-14.47915404127,0.));
#502=CARTESIAN_POINT('',(-8.06265022246173,-14.47915404127,0.));
#503=CARTESIAN_POINT('',(-6.45894743502143,0.183404990821392,-9.54097911787244E-15));
#504=CARTESIAN_POINT('',(-18.0743225490285,-8.69891232848825,0.));
#505=CARTESIAN_POINT('',(-18.3552446475811,-8.5367218792676,0.));
#506=CARTESIAN_POINT('',(-18.3552446475811,-8.53672187926761,5.));
#507=CARTESIAN_POINT('',(-18.0743225490285,-8.69891232848825,0.));
#508=CARTESIAN_POINT('',(-6.45894743502021,0.183404990821859,0.));
#509=CARTESIAN_POINT('',(-6.45894743502021,0.183404990821859,-2.29850860566927E-14));
#510=CARTESIAN_POINT('',(-6.4589474350214,0.183404990821141,0.));
#511=CARTESIAN_POINT('',(-15.9889474350214,0.183404990821145,0.));
#512=CARTESIAN_POINT('',(6.14105165004729,-13.729094323935,0.));
#513=CARTESIAN_POINT('',(-6.4589474350214,0.183404990821142,5.));
#514=MECHANICAL_DESIGN_GEOMETRIC_PRESENTATION_REPRESENTATION('',(#311,#312),
#515);
#515=(
GEOMETRIC_REPRESENTATION_CONTEXT(3)
GLOBAL_UNCERTAINTY_ASSIGNED_CONTEXT((#516))
GLOBAL_UNIT_ASSIGNED_CONTEXT((#522,#518,#517))
REPRESENTATION_CONTEXT('100740365ugm000_a','TOP_LEVEL_ASSEMBLY_PART')
);
#516=UNCERTAINTY_MEASURE_WITH_UNIT(LENGTH_MEASURE(2.E-5),#522,
'DISTANCE_ACCURACY_VALUE','Maximum Tolerance applied to model');
#517=(
NAMED_UNIT(*)
SI_UNIT($,.STERADIAN.)
SOLID_ANGLE_UNIT()
);
#518=(
CONVERSION_BASED_UNIT('DEGREE',#520)
NAMED_UNIT(#519)
PLANE_ANGLE_UNIT()
);
#519=DIMENSIONAL_EXPONENTS(0.,0.,0.,0.,0.,0.,0.);
#520=PLANE_ANGLE_MEASURE_WITH_UNIT(PLANE_ANGLE_MEASURE(0.0174532925),#521);
#521=(
NAMED_UNIT(*)
PLANE_ANGLE_UNIT()
SI_UNIT($,.RADIAN.)
);
#522=(
LENGTH_UNIT()
NAMED_UNIT(*)
SI_UNIT(.MILLI.,.METRE.)
);
ENDSEC;
END-ISO-10303-21;
