ISO-10303-21;
HEADER;
/* Generated by software containing ST-Developer
 * from STEP Tools, Inc. (www.steptools.com) 
 */
/* OPTION: using custom schema-name function */

FILE_DESCRIPTION(
/* description */ (''),
/* implementation_level */ '2;1');

FILE_NAME(
/* name */ '100191092ugm000_b.stp',
/* time_stamp */ '2017-10-27T14:20:41+02:00',
/* author */ (''),
/* organization */ (''),
/* preprocessor_version */ 'ST-DEVELOPER v16',
/* originating_system */ 'SIEMENS PLM Software NX 10.0',
/* authorisation */ '');

FILE_SCHEMA (('AUTOMOTIVE_DESIGN { 1 0 10303 214 3 1 1 1 }'));
ENDSEC;

DATA;
#10=GEOMETRICALLY_BOUNDED_WIREFRAME_SHAPE_REPRESENTATION(
'100191092ugm000_b-None',(#33),#563);
#11=PROPERTY_DEFINITION_REPRESENTATION(#15,#13);
#12=PROPERTY_DEFINITION_REPRESENTATION(#16,#14);
#13=REPRESENTATION('',(#17),#563);
#14=REPRESENTATION('',(#18),#563);
#15=PROPERTY_DEFINITION('pmi validation property','',#23);
#16=PROPERTY_DEFINITION('pmi validation property','',#23);
#17=VALUE_REPRESENTATION_ITEM('number of annotations',COUNT_MEASURE(0.));
#18=VALUE_REPRESENTATION_ITEM('number of views',COUNT_MEASURE(0.));
#19=SHAPE_REPRESENTATION_RELATIONSHIP('None',
'relationship between 100191092ugm000_b-None and 100191092ugm000_b-Non
e',#32,#21);
#20=SHAPE_REPRESENTATION_RELATIONSHIP('None',
'relationship between 100191092ugm000_b-None and 100191092ugm000_b-Non
e',#32,#10);
#21=ADVANCED_BREP_SHAPE_REPRESENTATION('100191092ugm000_b-None',(#39),#563);
#22=SHAPE_DEFINITION_REPRESENTATION(#23,#32);
#23=PRODUCT_DEFINITION_SHAPE('','',#24);
#24=PRODUCT_DEFINITION(' ','',#26,#25);
#25=PRODUCT_DEFINITION_CONTEXT('part definition',#31,'design');
#26=PRODUCT_DEFINITION_FORMATION_WITH_SPECIFIED_SOURCE(' ',' ',#28,
 .NOT_KNOWN.);
#27=PRODUCT_RELATED_PRODUCT_CATEGORY('part','',(#28));
#28=PRODUCT('100191092ugm000_b','100191092ugm000_b',' ',(#29));
#29=PRODUCT_CONTEXT(' ',#31,'mechanical');
#30=APPLICATION_PROTOCOL_DEFINITION('international standard',
'automotive_design',2010,#31);
#31=APPLICATION_CONTEXT(
'core data for automotive mechanical design processes');
#32=SHAPE_REPRESENTATION('100191092ugm000_b-None',(#318),#563);
#33=GEOMETRIC_CURVE_SET('None',(#451));
#34=SURFACE_STYLE_USAGE(.BOTH.,#35);
#35=SURFACE_SIDE_STYLE('',(#36));
#36=SURFACE_STYLE_FILL_AREA(#37);
#37=FILL_AREA_STYLE('',(#38));
#38=FILL_AREA_STYLE_COLOUR('',#317);
#39=MANIFOLD_SOLID_BREP('',#40);
#40=CLOSED_SHELL('',(#63,#64,#65,#66,#67,#68,#69,#70,#71,#72,#73,#74,#75,
#76,#77,#78,#79,#80,#81,#82,#83));
#41=(
BOUNDED_SURFACE()
B_SPLINE_SURFACE(2,2,((#540,#541,#542),(#543,#544,#545),(#546,#547,#548),
(#549,#550,#551),(#552,#553,#554),(#555,#556,#557),(#558,#559,#560)),
 .UNSPECIFIED.,.T.,.F.,.F.)
B_SPLINE_SURFACE_WITH_KNOTS((1,2,2,2,2,1),(3,3),(-0.333333333333333,0.,
0.333333333333333,0.666666666666667,1.,1.33333333333333),(0.,1.),
 .UNSPECIFIED.)
GEOMETRIC_REPRESENTATION_ITEM()
RATIONAL_B_SPLINE_SURFACE(((1.,0.951971638232916,1.),(0.5,0.475985819116458,
0.5),(1.,0.951971638232916,1.),(0.5,0.475985819116458,0.5),(1.,0.951971638232916,
1.),(0.5,0.475985819116458,0.5),(1.,0.951971638232916,1.)))
REPRESENTATION_ITEM('')
SURFACE()
);
#42=FACE_OUTER_BOUND('',#164,.T.);
#43=FACE_OUTER_BOUND('',#165,.T.);
#44=FACE_OUTER_BOUND('',#166,.T.);
#45=FACE_OUTER_BOUND('',#167,.T.);
#46=FACE_OUTER_BOUND('',#168,.T.);
#47=FACE_OUTER_BOUND('',#169,.T.);
#48=(
BOUNDED_CURVE()
B_SPLINE_CURVE(2,(#494,#495,#496),.UNSPECIFIED.,.F.,.F.)
B_SPLINE_CURVE_WITH_KNOTS((3,3),(0.,1.),.UNSPECIFIED.)
CURVE()
GEOMETRIC_REPRESENTATION_ITEM()
RATIONAL_B_SPLINE_CURVE((0.999999999999999,0.725708114822116,0.752360382741981))
REPRESENTATION_ITEM('')
);
#49=(
BOUNDED_CURVE()
B_SPLINE_CURVE(2,(#498,#499,#500,#501,#502,#503,#504),.UNSPECIFIED.,.F.,
 .F.)
B_SPLINE_CURVE_WITH_KNOTS((3,2,2,3),(0.,0.0304187063143869,0.515209353157193,
1.),.UNSPECIFIED.)
CURVE()
GEOMETRIC_REPRESENTATION_ITEM()
RATIONAL_B_SPLINE_CURVE((0.941191002092425,0.968626966596315,1.,0.5,1.,
0.5,1.))
REPRESENTATION_ITEM('')
);
#50=PLANE('',#327);
#51=PLANE('',#335);
#52=PLANE('',#338);
#53=PLANE('',#340);
#54=PLANE('',#344);
#55=PLANE('',#349);
#56=PLANE('',#351);
#57=PLANE('',#354);
#58=PLANE('',#359);
#59=CONICAL_SURFACE('',#323,0.250000000000042,60.0000000000003);
#60=CONICAL_SURFACE('',#331,2.3,34.9999999999993);
#61=CONICAL_SURFACE('',#348,0.961324865405194,29.9999999999994);
#62=VERTEX_LOOP('',#236);
#63=ADVANCED_FACE('',(#105,#106),#84,.T.);
#64=ADVANCED_FACE('',(#107,#108),#59,.F.);
#65=ADVANCED_FACE('',(#109,#110),#85,.F.);
#66=ADVANCED_FACE('',(#111,#112),#50,.T.);
#67=ADVANCED_FACE('',(#113,#114),#86,.T.);
#68=ADVANCED_FACE('',(#115,#116),#60,.T.);
#69=ADVANCED_FACE('',(#117,#118),#87,.T.);
#70=ADVANCED_FACE('',(#119,#120),#51,.T.);
#71=ADVANCED_FACE('',(#121,#122),#88,.T.);
#72=ADVANCED_FACE('',(#123,#124),#52,.T.);
#73=ADVANCED_FACE('',(#125,#126),#53,.T.);
#74=ADVANCED_FACE('',(#127,#128),#89,.T.);
#75=ADVANCED_FACE('',(#129,#130),#54,.T.);
#76=ADVANCED_FACE('',(#131,#132),#90,.T.);
#77=ADVANCED_FACE('',(#133,#134),#61,.T.);
#78=ADVANCED_FACE('',(#42),#55,.T.);
#79=ADVANCED_FACE('',(#43),#56,.F.);
#80=ADVANCED_FACE('',(#44),#57,.T.);
#81=ADVANCED_FACE('',(#45),#91,.T.);
#82=ADVANCED_FACE('',(#46),#41,.T.);
#83=ADVANCED_FACE('',(#47),#58,.F.);
#84=CYLINDRICAL_SURFACE('',#321,2.2);
#85=CYLINDRICAL_SURFACE('',#325,1.25);
#86=CYLINDRICAL_SURFACE('',#329,2.30000000000002);
#87=CYLINDRICAL_SURFACE('',#333,3.00000000000004);
#88=CYLINDRICAL_SURFACE('',#337,2.40000000000004);
#89=CYLINDRICAL_SURFACE('',#342,2.32499999999999);
#90=CYLINDRICAL_SURFACE('',#346,1.25);
#91=CYLINDRICAL_SURFACE('',#357,2.50000000000616);
#92=B_SPLINE_CURVE_WITH_KNOTS('',3,(#459,#460,#461,#462,#463,#464),
 .UNSPECIFIED.,.F.,.F.,(4,2,4),(0.,0.5,1.),.UNSPECIFIED.);
#93=LINE('',#457,#99);
#94=LINE('',#466,#100);
#95=LINE('',#521,#101);
#96=LINE('',#524,#102);
#97=LINE('',#531,#103);
#98=LINE('',#533,#104);
#99=VECTOR('',#366,1.);
#100=VECTOR('',#367,1.);
#101=VECTOR('',#426,1.);
#102=VECTOR('',#427,1.);
#103=VECTOR('',#436,1.);
#104=VECTOR('',#439,1.);
#105=FACE_BOUND('',#135,.T.);
#106=FACE_BOUND('',#136,.T.);
#107=FACE_BOUND('',#137,.T.);
#108=FACE_BOUND('',#62,.T.);
#109=FACE_BOUND('',#138,.T.);
#110=FACE_BOUND('',#139,.T.);
#111=FACE_BOUND('',#140,.T.);
#112=FACE_BOUND('',#141,.T.);
#113=FACE_BOUND('',#142,.T.);
#114=FACE_BOUND('',#143,.T.);
#115=FACE_BOUND('',#144,.T.);
#116=FACE_BOUND('',#145,.T.);
#117=FACE_BOUND('',#146,.T.);
#118=FACE_BOUND('',#147,.T.);
#119=FACE_BOUND('',#148,.T.);
#120=FACE_BOUND('',#149,.T.);
#121=FACE_BOUND('',#150,.T.);
#122=FACE_BOUND('',#151,.T.);
#123=FACE_BOUND('',#152,.T.);
#124=FACE_BOUND('',#153,.T.);
#125=FACE_BOUND('',#154,.T.);
#126=FACE_BOUND('',#155,.T.);
#127=FACE_BOUND('',#156,.T.);
#128=FACE_BOUND('',#157,.T.);
#129=FACE_BOUND('',#158,.T.);
#130=FACE_BOUND('',#159,.T.);
#131=FACE_BOUND('',#160,.T.);
#132=FACE_BOUND('',#161,.T.);
#133=FACE_BOUND('',#162,.T.);
#134=FACE_BOUND('',#163,.T.);
#135=EDGE_LOOP('',(#170));
#136=EDGE_LOOP('',(#171,#172,#173,#174));
#137=EDGE_LOOP('',(#175));
#138=EDGE_LOOP('',(#176));
#139=EDGE_LOOP('',(#177));
#140=EDGE_LOOP('',(#178));
#141=EDGE_LOOP('',(#179));
#142=EDGE_LOOP('',(#180));
#143=EDGE_LOOP('',(#181));
#144=EDGE_LOOP('',(#182));
#145=EDGE_LOOP('',(#183));
#146=EDGE_LOOP('',(#184));
#147=EDGE_LOOP('',(#185));
#148=EDGE_LOOP('',(#186));
#149=EDGE_LOOP('',(#187));
#150=EDGE_LOOP('',(#188));
#151=EDGE_LOOP('',(#189));
#152=EDGE_LOOP('',(#190));
#153=EDGE_LOOP('',(#191));
#154=EDGE_LOOP('',(#192,#193,#194));
#155=EDGE_LOOP('',(#195));
#156=EDGE_LOOP('',(#196));
#157=EDGE_LOOP('',(#197));
#158=EDGE_LOOP('',(#198));
#159=EDGE_LOOP('',(#199));
#160=EDGE_LOOP('',(#200));
#161=EDGE_LOOP('',(#201));
#162=EDGE_LOOP('',(#202));
#163=EDGE_LOOP('',(#203));
#164=EDGE_LOOP('',(#204));
#165=EDGE_LOOP('',(#205,#206,#207,#208));
#166=EDGE_LOOP('',(#209,#210,#211,#212,#213));
#167=EDGE_LOOP('',(#214,#215,#216,#217,#218,#219));
#168=EDGE_LOOP('',(#220,#221,#222,#223,#224,#225));
#169=EDGE_LOOP('',(#226,#227,#228,#229));
#170=ORIENTED_EDGE('',*,*,#256,.T.);
#171=ORIENTED_EDGE('',*,*,#257,.T.);
#172=ORIENTED_EDGE('',*,*,#258,.T.);
#173=ORIENTED_EDGE('',*,*,#259,.F.);
#174=ORIENTED_EDGE('',*,*,#260,.T.);
#175=ORIENTED_EDGE('',*,*,#261,.F.);
#176=ORIENTED_EDGE('',*,*,#262,.F.);
#177=ORIENTED_EDGE('',*,*,#261,.T.);
#178=ORIENTED_EDGE('',*,*,#262,.T.);
#179=ORIENTED_EDGE('',*,*,#263,.F.);
#180=ORIENTED_EDGE('',*,*,#264,.F.);
#181=ORIENTED_EDGE('',*,*,#263,.T.);
#182=ORIENTED_EDGE('',*,*,#265,.F.);
#183=ORIENTED_EDGE('',*,*,#264,.T.);
#184=ORIENTED_EDGE('',*,*,#266,.F.);
#185=ORIENTED_EDGE('',*,*,#265,.T.);
#186=ORIENTED_EDGE('',*,*,#267,.F.);
#187=ORIENTED_EDGE('',*,*,#266,.T.);
#188=ORIENTED_EDGE('',*,*,#268,.F.);
#189=ORIENTED_EDGE('',*,*,#267,.T.);
#190=ORIENTED_EDGE('',*,*,#256,.F.);
#191=ORIENTED_EDGE('',*,*,#268,.T.);
#192=ORIENTED_EDGE('',*,*,#259,.T.);
#193=ORIENTED_EDGE('',*,*,#269,.F.);
#194=ORIENTED_EDGE('',*,*,#270,.F.);
#195=ORIENTED_EDGE('',*,*,#271,.F.);
#196=ORIENTED_EDGE('',*,*,#272,.F.);
#197=ORIENTED_EDGE('',*,*,#271,.T.);
#198=ORIENTED_EDGE('',*,*,#273,.F.);
#199=ORIENTED_EDGE('',*,*,#272,.T.);
#200=ORIENTED_EDGE('',*,*,#274,.F.);
#201=ORIENTED_EDGE('',*,*,#273,.T.);
#202=ORIENTED_EDGE('',*,*,#275,.T.);
#203=ORIENTED_EDGE('',*,*,#274,.T.);
#204=ORIENTED_EDGE('',*,*,#275,.F.);
#205=ORIENTED_EDGE('',*,*,#276,.F.);
#206=ORIENTED_EDGE('',*,*,#277,.F.);
#207=ORIENTED_EDGE('',*,*,#260,.F.);
#208=ORIENTED_EDGE('',*,*,#278,.F.);
#209=ORIENTED_EDGE('',*,*,#277,.T.);
#210=ORIENTED_EDGE('',*,*,#279,.F.);
#211=ORIENTED_EDGE('',*,*,#280,.F.);
#212=ORIENTED_EDGE('',*,*,#281,.T.);
#213=ORIENTED_EDGE('',*,*,#257,.F.);
#214=ORIENTED_EDGE('',*,*,#282,.T.);
#215=ORIENTED_EDGE('',*,*,#280,.T.);
#216=ORIENTED_EDGE('',*,*,#279,.T.);
#217=ORIENTED_EDGE('',*,*,#276,.T.);
#218=ORIENTED_EDGE('',*,*,#283,.T.);
#219=ORIENTED_EDGE('',*,*,#284,.T.);
#220=ORIENTED_EDGE('',*,*,#278,.T.);
#221=ORIENTED_EDGE('',*,*,#270,.T.);
#222=ORIENTED_EDGE('',*,*,#269,.T.);
#223=ORIENTED_EDGE('',*,*,#285,.T.);
#224=ORIENTED_EDGE('',*,*,#284,.F.);
#225=ORIENTED_EDGE('',*,*,#283,.F.);
#226=ORIENTED_EDGE('',*,*,#258,.F.);
#227=ORIENTED_EDGE('',*,*,#281,.F.);
#228=ORIENTED_EDGE('',*,*,#282,.F.);
#229=ORIENTED_EDGE('',*,*,#285,.F.);
#230=VERTEX_POINT('',#453);
#231=VERTEX_POINT('',#455);
#232=VERTEX_POINT('',#456);
#233=VERTEX_POINT('',#458);
#234=VERTEX_POINT('',#465);
#235=VERTEX_POINT('',#469);
#236=VERTEX_POINT('',#470);
#237=VERTEX_POINT('',#473);
#238=VERTEX_POINT('',#476);
#239=VERTEX_POINT('',#479);
#240=VERTEX_POINT('',#482);
#241=VERTEX_POINT('',#485);
#242=VERTEX_POINT('',#488);
#243=VERTEX_POINT('',#491);
#244=VERTEX_POINT('',#497);
#245=VERTEX_POINT('',#506);
#246=VERTEX_POINT('',#509);
#247=VERTEX_POINT('',#512);
#248=VERTEX_POINT('',#515);
#249=VERTEX_POINT('',#518);
#250=VERTEX_POINT('',#522);
#251=VERTEX_POINT('',#523);
#252=VERTEX_POINT('',#528);
#253=VERTEX_POINT('',#530);
#254=VERTEX_POINT('',#534);
#255=VERTEX_POINT('',#536);
#256=EDGE_CURVE('',#230,#230,#286,.T.);
#257=EDGE_CURVE('',#231,#232,#287,.T.);
#258=EDGE_CURVE('',#232,#233,#93,.T.);
#259=EDGE_CURVE('',#234,#233,#92,.T.);
#260=EDGE_CURVE('',#234,#231,#94,.T.);
#261=EDGE_CURVE('',#235,#235,#288,.T.);
#262=EDGE_CURVE('',#237,#237,#289,.T.);
#263=EDGE_CURVE('',#238,#238,#290,.T.);
#264=EDGE_CURVE('',#239,#239,#291,.T.);
#265=EDGE_CURVE('',#240,#240,#292,.T.);
#266=EDGE_CURVE('',#241,#241,#293,.T.);
#267=EDGE_CURVE('',#242,#242,#294,.T.);
#268=EDGE_CURVE('',#243,#243,#295,.T.);
#269=EDGE_CURVE('',#244,#233,#48,.T.);
#270=EDGE_CURVE('',#234,#244,#49,.T.);
#271=EDGE_CURVE('',#245,#245,#296,.T.);
#272=EDGE_CURVE('',#246,#246,#297,.T.);
#273=EDGE_CURVE('',#247,#247,#298,.T.);
#274=EDGE_CURVE('',#248,#248,#299,.T.);
#275=EDGE_CURVE('',#249,#249,#300,.T.);
#276=EDGE_CURVE('',#250,#251,#95,.T.);
#277=EDGE_CURVE('',#231,#250,#96,.T.);
#278=EDGE_CURVE('',#251,#234,#301,.T.);
#279=EDGE_CURVE('',#252,#250,#302,.T.);
#280=EDGE_CURVE('',#253,#252,#303,.T.);
#281=EDGE_CURVE('',#253,#232,#97,.T.);
#282=EDGE_CURVE('',#254,#253,#98,.T.);
#283=EDGE_CURVE('',#251,#255,#304,.T.);
#284=EDGE_CURVE('',#255,#254,#305,.T.);
#285=EDGE_CURVE('',#233,#254,#306,.T.);
#286=CIRCLE('',#319,2.2);
#287=CIRCLE('',#320,2.20000000000002);
#288=CIRCLE('',#322,1.25);
#289=CIRCLE('',#324,1.25);
#290=CIRCLE('',#326,2.30000000000004);
#291=CIRCLE('',#328,2.3);
#292=CIRCLE('',#330,3.00000000000004);
#293=CIRCLE('',#332,3.00000000000004);
#294=CIRCLE('',#334,2.40000000000004);
#295=CIRCLE('',#336,2.40000000000004);
#296=CIRCLE('',#339,2.32499999999999);
#297=CIRCLE('',#341,2.32499999999999);
#298=CIRCLE('',#343,1.25);
#299=CIRCLE('',#345,1.25);
#300=CIRCLE('',#347,0.961324865405195);
#301=CIRCLE('',#350,1.59999999999869);
#302=CIRCLE('',#352,2.50000000001224);
#303=CIRCLE('',#353,2.50000000001224);
#304=CIRCLE('',#355,2.50000000000013);
#305=CIRCLE('',#356,2.50000000000008);
#306=CIRCLE('',#358,1.59999999999878);
#307=INVISIBILITY((#308));
#308=PRESENTATION_LAYER_ASSIGNMENT('130','Layer 130',(#451));
#309=PRESENTATION_LAYER_ASSIGNMENT('1','Layer 1',(#39));
#310=STYLED_ITEM('',(#312),#451);
#311=STYLED_ITEM('',(#313),#39);
#312=PRESENTATION_STYLE_ASSIGNMENT((#314));
#313=PRESENTATION_STYLE_ASSIGNMENT((#34));
#314=POINT_STYLE('',#315,POSITIVE_LENGTH_MEASURE(3.),#316);
#315=PRE_DEFINED_POINT_MARKER_SYMBOL('plus');
#316=COLOUR_RGB('Medium Maroon',0.6,0.4,0.4);
#317=COLOUR_RGB('Silver Gray',0.6,0.6,0.6);
#318=AXIS2_PLACEMENT_3D('',#450,#360,#361);
#319=AXIS2_PLACEMENT_3D('',#452,#362,#363);
#320=AXIS2_PLACEMENT_3D('',#454,#364,#365);
#321=AXIS2_PLACEMENT_3D('',#467,#368,#369);
#322=AXIS2_PLACEMENT_3D('',#468,#370,#371);
#323=AXIS2_PLACEMENT_3D('',#471,#372,#373);
#324=AXIS2_PLACEMENT_3D('',#472,#374,#375);
#325=AXIS2_PLACEMENT_3D('',#474,#376,#377);
#326=AXIS2_PLACEMENT_3D('',#475,#378,#379);
#327=AXIS2_PLACEMENT_3D('',#477,#380,#381);
#328=AXIS2_PLACEMENT_3D('',#478,#382,#383);
#329=AXIS2_PLACEMENT_3D('',#480,#384,#385);
#330=AXIS2_PLACEMENT_3D('',#481,#386,#387);
#331=AXIS2_PLACEMENT_3D('',#483,#388,#389);
#332=AXIS2_PLACEMENT_3D('',#484,#390,#391);
#333=AXIS2_PLACEMENT_3D('',#486,#392,#393);
#334=AXIS2_PLACEMENT_3D('',#487,#394,#395);
#335=AXIS2_PLACEMENT_3D('',#489,#396,#397);
#336=AXIS2_PLACEMENT_3D('',#490,#398,#399);
#337=AXIS2_PLACEMENT_3D('',#492,#400,#401);
#338=AXIS2_PLACEMENT_3D('',#493,#402,#403);
#339=AXIS2_PLACEMENT_3D('',#505,#404,#405);
#340=AXIS2_PLACEMENT_3D('',#507,#406,#407);
#341=AXIS2_PLACEMENT_3D('',#508,#408,#409);
#342=AXIS2_PLACEMENT_3D('',#510,#410,#411);
#343=AXIS2_PLACEMENT_3D('',#511,#412,#413);
#344=AXIS2_PLACEMENT_3D('',#513,#414,#415);
#345=AXIS2_PLACEMENT_3D('',#514,#416,#417);
#346=AXIS2_PLACEMENT_3D('',#516,#418,#419);
#347=AXIS2_PLACEMENT_3D('',#517,#420,#421);
#348=AXIS2_PLACEMENT_3D('',#519,#422,#423);
#349=AXIS2_PLACEMENT_3D('',#520,#424,#425);
#350=AXIS2_PLACEMENT_3D('',#525,#428,#429);
#351=AXIS2_PLACEMENT_3D('',#526,#430,#431);
#352=AXIS2_PLACEMENT_3D('',#527,#432,#433);
#353=AXIS2_PLACEMENT_3D('',#529,#434,#435);
#354=AXIS2_PLACEMENT_3D('',#532,#437,#438);
#355=AXIS2_PLACEMENT_3D('',#535,#440,#441);
#356=AXIS2_PLACEMENT_3D('',#537,#442,#443);
#357=AXIS2_PLACEMENT_3D('',#538,#444,#445);
#358=AXIS2_PLACEMENT_3D('',#539,#446,#447);
#359=AXIS2_PLACEMENT_3D('',#561,#448,#449);
#360=DIRECTION('',(0.,0.,1.));
#361=DIRECTION('',(1.,0.,0.));
#362=DIRECTION('',(-1.,0.,0.));
#363=DIRECTION('',(0.,0.,1.));
#364=DIRECTION('',(1.,-5.6368045020137E-14,1.18199268272101E-13));
#365=DIRECTION('',(-1.30104260698259E-13,-0.39999999999804,0.916515138992024));
#366=DIRECTION('',(-1.,0.,0.));
#367=DIRECTION('',(1.,0.,0.));
#368=DIRECTION('',(-1.,-1.20785524552432E-16,6.80283716069337E-16));
#369=DIRECTION('',(0.,1.,0.));
#370=DIRECTION('',(-1.,-6.16790569236198E-16,1.06831260354642E-15));
#371=DIRECTION('',(0.,1.,-1.02798428206033E-16));
#372=DIRECTION('',(1.,1.0842021724857E-15,-1.50231459873723E-15));
#373=DIRECTION('',(-9.93387338186383E-16,1.,-1.21972744404634E-16));
#374=DIRECTION('',(-1.,-1.76813296514377E-14,2.13662520709285E-15));
#375=DIRECTION('',(-1.66533453693774E-14,1.,-1.02798428206033E-16));
#376=DIRECTION('',(-1.,-4.11193712824132E-16,2.13662520709285E-15));
#377=DIRECTION('',(0.,1.,-1.02798428206034E-16));
#378=DIRECTION('',(-1.,-9.15696517325494E-16,1.58603289232163E-15));
#379=DIRECTION('',(-1.50845519650154E-15,1.,-1.04225018638279E-16));
#380=DIRECTION('',(1.,0.,0.));
#381=DIRECTION('',(0.,1.,0.));
#382=DIRECTION('',(-1.,-5.65034576662831E-17,1.63772717386571E-15));
#383=DIRECTION('',(0.,1.,0.));
#384=DIRECTION('',(-1.,-1.20975203954973E-15,7.93016446160822E-16));
#385=DIRECTION('',(-1.50845519650156E-15,1.,2.0845003727656E-16));
#386=DIRECTION('',(-1.,-4.00593479526568E-16,6.93848259720819E-16));
#387=DIRECTION('',(0.,1.,0.));
#388=DIRECTION('',(-1.,-1.13290746034619E-15,7.10711792432282E-16));
#389=DIRECTION('',(-1.11119884375754E-15,1.,-1.92904638127901E-16));
#390=DIRECTION('',(-1.,6.25357104920025E-15,4.4513025147767E-16));
#391=DIRECTION('',(6.3606527452482E-15,1.,-8.56653568383596E-17));
#392=DIRECTION('',(-1.,-6.32271818023478E-16,3.4692412986041E-16));
#393=DIRECTION('',(-1.15648231731786E-15,1.,0.));
#394=DIRECTION('',(-1.,-1.55001450191663E-17,8.0684812836129E-16));
#395=DIRECTION('',(0.,1.,0.));
#396=DIRECTION('',(-1.,0.,0.));
#397=DIRECTION('',(0.,1.,0.));
#398=DIRECTION('',(-1.,-1.44560289664731E-15,2.78206407173543E-16));
#399=DIRECTION('',(-1.44560289664731E-15,1.,0.));
#400=DIRECTION('',(-1.,-4.34833694066205E-16,8.0684812836129E-16));
#401=DIRECTION('',(-7.22801448323657E-16,1.,0.));
#402=DIRECTION('',(-1.,0.,0.));
#403=DIRECTION('',(0.,1.,0.));
#404=DIRECTION('',(-1.,-2.78206407173544E-16,4.81867632215773E-16));
#405=DIRECTION('',(-3.73058812038024E-16,1.,0.));
#406=DIRECTION('',(1.,0.,0.));
#407=DIRECTION('',(0.,1.,0.));
#408=DIRECTION('',(-1.,-3.09500644061176E-15,0.));
#409=DIRECTION('',(-2.98447049630419E-15,1.,0.));
#410=DIRECTION('',(-1.,-4.83309154691925E-16,2.40933816107887E-16));
#411=DIRECTION('',(-3.73058812038024E-16,1.,0.));
#412=DIRECTION('',(-1.,1.894796276805E-16,1.05134756119807E-15));
#413=DIRECTION('',(0.,1.,0.));
#414=DIRECTION('',(-1.,0.,0.));
#415=DIRECTION('',(0.,1.,0.));
#416=DIRECTION('',(-1.,-2.39752322314354E-17,4.15263203481091E-17));
#417=DIRECTION('',(0.,1.,0.));
#418=DIRECTION('',(-1.,-9.47398138402495E-17,5.25673780599037E-16));
#419=DIRECTION('',(0.,1.,-1.99118856287516E-16));
#420=DIRECTION('',(1.,0.,0.));
#421=DIRECTION('',(0.,1.,4.13624694641267E-16));
#422=DIRECTION('',(1.,8.92425306090184E-18,-2.34736656052683E-17));
#423=DIRECTION('',(0.,1.,-8.99071208678832E-17));
#424=DIRECTION('',(-1.,0.,0.));
#425=DIRECTION('',(0.,1.,0.));
#426=DIRECTION('',(-1.,-1.50347454387979E-16,1.80416945265575E-15));
#427=DIRECTION('',(0.,-0.399999999998041,0.916515138992023));
#428=DIRECTION('',(-3.68396275318515E-16,-0.916515138992023,-0.39999999999804));
#429=DIRECTION('',(2.11419423634846E-13,-0.39999999999804,0.916515138992023));
#430=DIRECTION('',(0.,-0.916515138992023,-0.399999999998041));
#431=DIRECTION('',(0.,-0.399999999998041,0.916515138992023));
#432=DIRECTION('',(-1.,-1.73606286525327E-16,3.00694908775227E-16));
#433=DIRECTION('',(0.,1.,-6.5152623325795E-17));
#434=DIRECTION('',(-1.,6.90158575037586E-16,-6.73859859999722E-16));
#435=DIRECTION('',(0.,0.399999999998044,0.916515138992022));
#436=DIRECTION('',(0.,-0.399999999998041,-0.916515138992023));
#437=DIRECTION('',(1.,0.,0.));
#438=DIRECTION('',(0.,1.,0.));
#439=DIRECTION('',(1.,0.,-1.50347454387979E-15));
#440=DIRECTION('',(1.,-1.9627673759638E-14,4.8731336719709E-14));
#441=DIRECTION('',(-5.27355936696921E-14,-0.399999999998041,0.916515138992023));
#442=DIRECTION('',(1.,1.38965454627014E-15,6.01389817553382E-16));
#443=DIRECTION('',(-1.3877787807814E-15,1.,1.30305246652224E-15));
#444=DIRECTION('',(-1.,-1.7400841355613E-16,6.01389817551917E-16));
#445=DIRECTION('',(0.,1.,0.));
#446=DIRECTION('',(-4.71844785465692E-16,0.916515138992023,-0.39999999999804));
#447=DIRECTION('',(-0.582961190818264,0.324999999998346,0.744668550430879));
#448=DIRECTION('',(0.,0.916515138992023,-0.399999999998041));
#449=DIRECTION('',(0.,-0.399999999998041,-0.916515138992023));
#450=CARTESIAN_POINT('',(0.,0.,0.));
#451=CARTESIAN_POINT('',(9.95000000000001,0.,1.62881558315285E-16));
#452=CARTESIAN_POINT('',(10.0999999999999,1.5400154380435E-16,-8.67361737988403E-16));
#453=CARTESIAN_POINT('',(10.0999999999999,1.5400154380435E-16,2.2));
#454=CARTESIAN_POINT('',(9.9500000000003,7.26415455565288E-15,-2.34187669256869E-14));
#455=CARTESIAN_POINT('',(9.95000000000001,-0.879999999995688,2.01633330578245));
#456=CARTESIAN_POINT('',(9.95000000000001,0.879999999995694,2.01633330578244));
#457=CARTESIAN_POINT('',(9.95000000000002,0.879999999995688,2.01633330578245));
#458=CARTESIAN_POINT('',(7.56080087105068,0.88078856201325,2.01811412639337));
#459=CARTESIAN_POINT('',(7.54999999999995,-0.882758031458435,2.02262788752485));
#460=CARTESIAN_POINT('',(7.54999999999995,-0.612987707888169,2.14083034617968));
#461=CARTESIAN_POINT('',(7.54999999999995,-0.318127642315677,2.19995461454948));
#462=CARTESIAN_POINT('',(7.54999999999995,0.318878034966354,2.20004554730687));
#463=CARTESIAN_POINT('',(7.54999999999995,0.613006342039259,2.14091607904332));
#464=CARTESIAN_POINT('',(7.54999999999995,0.882760117544054,2.02261167613753));
#465=CARTESIAN_POINT('',(7.54999999999995,-0.881383558853157,2.01947861385868));
#466=CARTESIAN_POINT('',(7.57499907366067,-0.879999999995688,2.01633330578245));
#467=CARTESIAN_POINT('',(10.0999999999999,1.5400154380435E-16,-8.67361737988403E-16));
#468=CARTESIAN_POINT('',(10.6773502691895,0.,1.28498035257541E-16));
#469=CARTESIAN_POINT('',(10.6773502691895,1.25,0.));
#470=CARTESIAN_POINT('',(9.95566243270251,-1.44212660359801E-16,7.42000861794818E-16));
#471=CARTESIAN_POINT('',(10.0999999999999,1.22784436753722E-17,5.25160427297674E-16));
#472=CARTESIAN_POINT('',(27.,0.,1.28498035257541E-16));
#473=CARTESIAN_POINT('',(27.,1.25,0.));
#474=CARTESIAN_POINT('',(27.,3.13904503847279E-15,-1.7309194395441E-14));
#475=CARTESIAN_POINT('',(27.,0.,2.39717542868046E-16));
#476=CARTESIAN_POINT('',(27.,2.30000000000004,0.));
#477=CARTESIAN_POINT('',(27.,-2.53000000000005,-2.53000000000005));
#478=CARTESIAN_POINT('',(18.25,-4.33680868994202E-16,0.));
#479=CARTESIAN_POINT('',(18.25,2.3,0.));
#480=CARTESIAN_POINT('',(27.,5.72634604202428E-15,-3.9488820376897E-15));
#481=CARTESIAN_POINT('',(17.2502963952804,4.33680868994202E-16,0.));
#482=CARTESIAN_POINT('',(17.2502963952804,3.00000000000004,0.));
#483=CARTESIAN_POINT('',(18.25,5.6628583596089E-16,1.55946720633313E-16));
#484=CARTESIAN_POINT('',(12.25,8.67361737988404E-16,2.56996070515082E-16));
#485=CARTESIAN_POINT('',(12.25,3.00000000000004,0.));
#486=CARTESIAN_POINT('',(17.2502963952804,2.0144541152443E-15,-8.67361737988404E-16));
#487=CARTESIAN_POINT('',(12.25,-4.33680868994202E-16,0.));
#488=CARTESIAN_POINT('',(12.25,2.40000000000004,0.));
#489=CARTESIAN_POINT('',(12.25,-3.30000000000005,3.30000000000005));
#490=CARTESIAN_POINT('',(10.0999999999999,4.33680868994202E-16,0.));
#491=CARTESIAN_POINT('',(10.0999999999999,2.40000000000004,0.));
#492=CARTESIAN_POINT('',(12.25,3.37653521269767E-17,-8.67361737988403E-16));
#493=CARTESIAN_POINT('',(10.0999999999999,-2.64000000000005,2.64000000000005));
#494=CARTESIAN_POINT('',(7.57500000000001,2.20000000000008,0.));
#495=CARTESIAN_POINT('',(7.57500000000001,2.20000000000008,1.44023807556087));
#496=CARTESIAN_POINT('',(7.57500000000001,0.879999999995842,2.01633330578247));
#497=CARTESIAN_POINT('',(7.56249999999997,2.20000000000003,5.68392016900431E-16));
#498=CARTESIAN_POINT('',(7.575,-0.879999999995793,2.01633330578248));
#499=CARTESIAN_POINT('',(7.575,-0.993115705217325,1.96696556469077));
#500=CARTESIAN_POINT('',(7.575,-1.10000000000004,1.90525588832583));
#501=CARTESIAN_POINT('',(7.575,-4.40000000000014,-2.28983498828939E-15));
#502=CARTESIAN_POINT('',(7.575,-1.10000000000003,-1.90525588832583));
#503=CARTESIAN_POINT('',(7.575,2.20000000000007,-3.81051177665165));
#504=CARTESIAN_POINT('',(7.575,2.20000000000007,0.));
#505=CARTESIAN_POINT('',(7.54999999999995,4.33680868994202E-16,0.));
#506=CARTESIAN_POINT('',(7.54999999999995,2.32499999999999,0.));
#507=CARTESIAN_POINT('',(7.54999999999995,-2.55749999999999,-2.55749999999999));
#508=CARTESIAN_POINT('',(7.09999999999993,4.33680868994202E-16,0.));
#509=CARTESIAN_POINT('',(7.09999999999993,2.32499999999999,0.));
#510=CARTESIAN_POINT('',(7.54999999999995,5.42425428799886E-16,-5.42101086242753E-17));
#511=CARTESIAN_POINT('',(7.09999999999994,2.16840434497101E-16,0.));
#512=CARTESIAN_POINT('',(7.09999999999994,1.25,0.));
#513=CARTESIAN_POINT('',(7.09999999999994,-2.55749999999999,2.55749999999999));
#514=CARTESIAN_POINT('',(0.5,2.16840434497101E-16,0.));
#515=CARTESIAN_POINT('',(0.5,1.25,0.));
#516=CARTESIAN_POINT('',(7.09999999999994,5.29481820169921E-16,-1.48582490561741E-15));
#517=CARTESIAN_POINT('',(0.,-4.33680868994202E-16,-3.97627703904281E-16));
#518=CARTESIAN_POINT('',(0.,0.961324865405194,0.));
#519=CARTESIAN_POINT('',(0.,4.31449805728976E-16,1.05275342377387E-16));
#520=CARTESIAN_POINT('',(0.,-1.05745735194571,1.05745735194571));
#521=CARTESIAN_POINT('',(9.95000000000002,-0.999999999999999,2.29128784749128));
#522=CARTESIAN_POINT('',(9.95000000000001,-0.999999999999999,2.29128784749128));
#523=CARTESIAN_POINT('',(8.50773790530879,-0.999999999995132,2.29128784748012));
#524=CARTESIAN_POINT('',(9.95000000000002,-0.879999999995688,2.01633330578245));
#525=CARTESIAN_POINT('',(8.50773790530845,-0.359999999998791,0.824863625094088));
#526=CARTESIAN_POINT('',(9.95000000000002,-0.879999999995688,2.01633330578245));
#527=CARTESIAN_POINT('',(9.95000000000001,0.,1.62881558315285E-16));
#528=CARTESIAN_POINT('',(9.95,2.50000000001224,0.));
#529=CARTESIAN_POINT('',(9.95000000000001,-1.30104260698261E-15,4.33680868994202E-16));
#530=CARTESIAN_POINT('',(9.95000000000001,0.999999999999999,2.29128784749128));
#531=CARTESIAN_POINT('',(9.95000000000002,1.,2.29128784749128));
#532=CARTESIAN_POINT('',(9.95000000000001,-2.75000000001347,-2.75000000001347));
#533=CARTESIAN_POINT('',(8.50773790530879,0.999999999999999,2.29128784749128));
#534=CARTESIAN_POINT('',(8.50773790530879,0.999999999995132,2.29128784748012));
#535=CARTESIAN_POINT('',(8.50773790530892,2.32019264911898E-14,-5.5944832100252E-14));
#536=CARTESIAN_POINT('',(8.50773790530881,2.50000000000007,0.));
#537=CARTESIAN_POINT('',(8.50773790530879,-3.90312782094782E-15,-3.25763116630571E-15));
#538=CARTESIAN_POINT('',(9.95000000000001,5.59163738508882E-16,-4.33680868994201E-16));
#539=CARTESIAN_POINT('',(8.50773790530851,0.35999999999876,0.824863625094014));
#540=CARTESIAN_POINT('',(8.50773790530879,2.50000000000007,0.));
#541=CARTESIAN_POINT('',(7.99312388858664,2.50000000000018,0.));
#542=CARTESIAN_POINT('',(7.575,2.20000000000007,0.));
#543=CARTESIAN_POINT('',(8.50773790530879,2.50000000000007,-4.33012701892232));
#544=CARTESIAN_POINT('',(7.9931238885867,2.50000000000018,-4.33012701892251));
#545=CARTESIAN_POINT('',(7.575,2.20000000000007,-3.81051177665165));
#546=CARTESIAN_POINT('',(8.50773790530879,-1.25000000000004,-2.16506350946116));
#547=CARTESIAN_POINT('',(7.99312388858664,-1.25000000000009,-2.16506350946125));
#548=CARTESIAN_POINT('',(7.575,-1.10000000000003,-1.90525588832583));
#549=CARTESIAN_POINT('',(8.50773790530879,-5.00000000000014,-2.60208521396521E-15));
#550=CARTESIAN_POINT('',(7.9931238885867,-5.00000000000036,-2.60208521396532E-15));
#551=CARTESIAN_POINT('',(7.575,-4.40000000000014,-2.28983498828939E-15));
#552=CARTESIAN_POINT('',(8.50773790530879,-1.25000000000004,2.16506350946116));
#553=CARTESIAN_POINT('',(7.99312388858664,-1.25000000000009,2.16506350946125));
#554=CARTESIAN_POINT('',(7.575,-1.10000000000004,1.90525588832583));
#555=CARTESIAN_POINT('',(8.50773790530879,2.50000000000007,4.33012701892232));
#556=CARTESIAN_POINT('',(7.9931238885867,2.50000000000018,4.33012701892251));
#557=CARTESIAN_POINT('',(7.575,2.20000000000007,3.81051177665165));
#558=CARTESIAN_POINT('',(8.50773790530879,2.50000000000007,0.));
#559=CARTESIAN_POINT('',(7.99312388858664,2.50000000000018,0.));
#560=CARTESIAN_POINT('',(7.575,2.20000000000007,0.));
#561=CARTESIAN_POINT('',(9.95000000000002,1.,2.29128784749128));
#562=MECHANICAL_DESIGN_GEOMETRIC_PRESENTATION_REPRESENTATION('',(#310,#311),
#563);
#563=(
GEOMETRIC_REPRESENTATION_CONTEXT(3)
GLOBAL_UNCERTAINTY_ASSIGNED_CONTEXT((#564))
GLOBAL_UNIT_ASSIGNED_CONTEXT((#570,#566,#565))
REPRESENTATION_CONTEXT('100191092ugm000_b','TOP_LEVEL_ASSEMBLY_PART')
);
#564=UNCERTAINTY_MEASURE_WITH_UNIT(LENGTH_MEASURE(0.0794623173841839),#570,
'DISTANCE_ACCURACY_VALUE','Maximum Tolerance applied to model');
#565=(
NAMED_UNIT(*)
SI_UNIT($,.STERADIAN.)
SOLID_ANGLE_UNIT()
);
#566=(
CONVERSION_BASED_UNIT('DEGREE',#568)
NAMED_UNIT(#567)
PLANE_ANGLE_UNIT()
);
#567=DIMENSIONAL_EXPONENTS(0.,0.,0.,0.,0.,0.,0.);
#568=PLANE_ANGLE_MEASURE_WITH_UNIT(PLANE_ANGLE_MEASURE(0.0174532925),#569);
#569=(
NAMED_UNIT(*)
PLANE_ANGLE_UNIT()
SI_UNIT($,.RADIAN.)
);
#570=(
LENGTH_UNIT()
NAMED_UNIT(*)
SI_UNIT(.MILLI.,.METRE.)
);
ENDSEC;
END-ISO-10303-21;
