ISO-10303-21;
HEADER;
/* Generated by software containing ST-Developer
 * from STEP Tools, Inc. (www.steptools.com) 
 */
/* OPTION: using custom schema-name function */

FILE_DESCRIPTION(
/* description */ (''),
/* implementation_level */ '2;1');

FILE_NAME(
/* name */ '100105289ugm000_b.stp',
/* time_stamp */ '2017-09-28T17:06:03+02:00',
/* author */ (''),
/* organization */ (''),
/* preprocessor_version */ 'ST-DEVELOPER v16',
/* originating_system */ 'SIEMENS PLM Software NX 10.0',
/* authorisation */ '');

FILE_SCHEMA (('AUTOMOTIVE_DESIGN { 1 0 10303 214 3 1 1 1 }'));
ENDSEC;

DATA;
#10=GEOMETRICALLY_BOUNDED_WIREFRAME_SHAPE_REPRESENTATION(
'100105289ugm000_b-None',(#33),#330);
#11=PROPERTY_DEFINITION_REPRESENTATION(#15,#13);
#12=PROPERTY_DEFINITION_REPRESENTATION(#16,#14);
#13=REPRESENTATION('',(#17),#330);
#14=REPRESENTATION('',(#18),#330);
#15=PROPERTY_DEFINITION('pmi validation property','',#23);
#16=PROPERTY_DEFINITION('pmi validation property','',#23);
#17=VALUE_REPRESENTATION_ITEM('number of annotations',COUNT_MEASURE(0.));
#18=VALUE_REPRESENTATION_ITEM('number of views',COUNT_MEASURE(0.));
#19=SHAPE_REPRESENTATION_RELATIONSHIP('None',
'relationship between 100105289ugm000_b-None and 100105289ugm000_b-Non
e',#32,#21);
#20=SHAPE_REPRESENTATION_RELATIONSHIP('None',
'relationship between 100105289ugm000_b-None and 100105289ugm000_b-Non
e',#32,#10);
#21=ADVANCED_BREP_SHAPE_REPRESENTATION('100105289ugm000_b-None',(#39),#330);
#22=SHAPE_DEFINITION_REPRESENTATION(#23,#32);
#23=PRODUCT_DEFINITION_SHAPE('','',#24);
#24=PRODUCT_DEFINITION(' ','',#26,#25);
#25=PRODUCT_DEFINITION_CONTEXT('part definition',#31,'design');
#26=PRODUCT_DEFINITION_FORMATION_WITH_SPECIFIED_SOURCE(' ',' ',#28,
 .NOT_KNOWN.);
#27=PRODUCT_RELATED_PRODUCT_CATEGORY('part','',(#28));
#28=PRODUCT('100105289ugm000_b','100105289ugm000_b',' ',(#29));
#29=PRODUCT_CONTEXT(' ',#31,'mechanical');
#30=APPLICATION_PROTOCOL_DEFINITION('international standard',
'automotive_design',2010,#31);
#31=APPLICATION_CONTEXT(
'core data for automotive mechanical design processes');
#32=SHAPE_REPRESENTATION('100105289ugm000_b-None',(#202),#330);
#33=GEOMETRIC_CURVE_SET('None',(#287,#288));
#34=SURFACE_STYLE_USAGE(.BOTH.,#35);
#35=SURFACE_SIDE_STYLE('',(#36));
#36=SURFACE_STYLE_FILL_AREA(#37);
#37=FILL_AREA_STYLE('',(#38));
#38=FILL_AREA_STYLE_COLOUR('',#201);
#39=MANIFOLD_SOLID_BREP('',#40);
#40=CLOSED_SHELL('',(#73,#74,#75,#76,#77,#78,#79,#80,#81,#82,#83,#84,#85,
#86));
#41=SPHERICAL_SURFACE('',#229,0.8);
#42=CONICAL_SURFACE('',#226,1.60000000000001,21.8014094863501);
#43=CYLINDRICAL_SURFACE('',#206,0.875000000000225);
#44=CYLINDRICAL_SURFACE('',#210,1.59999999999999);
#45=CYLINDRICAL_SURFACE('',#214,1.40000000000025);
#46=CYLINDRICAL_SURFACE('',#218,1.59999999999988);
#47=CYLINDRICAL_SURFACE('',#222,1.30000000000014);
#48=CYLINDRICAL_SURFACE('',#228,0.799999999999947);
#49=FACE_BOUND('',#96,.T.);
#50=FACE_BOUND('',#97,.T.);
#51=FACE_BOUND('',#98,.T.);
#52=FACE_BOUND('',#99,.T.);
#53=FACE_BOUND('',#100,.T.);
#54=FACE_BOUND('',#101,.T.);
#55=FACE_BOUND('',#102,.T.);
#56=FACE_BOUND('',#103,.T.);
#57=FACE_BOUND('',#104,.T.);
#58=FACE_BOUND('',#105,.T.);
#59=FACE_BOUND('',#106,.T.);
#60=FACE_BOUND('',#107,.T.);
#61=FACE_BOUND('',#108,.T.);
#62=FACE_BOUND('',#109,.T.);
#63=FACE_BOUND('',#110,.T.);
#64=FACE_BOUND('',#111,.T.);
#65=FACE_BOUND('',#112,.T.);
#66=FACE_BOUND('',#113,.T.);
#67=FACE_BOUND('',#114,.T.);
#68=FACE_BOUND('',#115,.T.);
#69=FACE_BOUND('',#116,.T.);
#70=FACE_BOUND('',#117,.T.);
#71=FACE_BOUND('',#118,.T.);
#72=FACE_BOUND('',#119,.T.);
#73=ADVANCED_FACE('',(#93),#87,.F.);
#74=ADVANCED_FACE('',(#49,#50),#43,.F.);
#75=ADVANCED_FACE('',(#51,#52),#88,.F.);
#76=ADVANCED_FACE('',(#53,#54),#44,.T.);
#77=ADVANCED_FACE('',(#55,#56),#89,.F.);
#78=ADVANCED_FACE('',(#57,#58),#45,.T.);
#79=ADVANCED_FACE('',(#59,#60),#90,.F.);
#80=ADVANCED_FACE('',(#61,#62),#46,.T.);
#81=ADVANCED_FACE('',(#63,#64),#91,.F.);
#82=ADVANCED_FACE('',(#65,#66),#47,.T.);
#83=ADVANCED_FACE('',(#67,#68),#92,.F.);
#84=ADVANCED_FACE('',(#69,#70),#42,.T.);
#85=ADVANCED_FACE('',(#71,#72),#48,.T.);
#86=ADVANCED_FACE('',(#94),#41,.T.);
#87=PLANE('',#204);
#88=PLANE('',#208);
#89=PLANE('',#212);
#90=PLANE('',#216);
#91=PLANE('',#220);
#92=PLANE('',#224);
#93=FACE_OUTER_BOUND('',#95,.T.);
#94=FACE_OUTER_BOUND('',#120,.T.);
#95=EDGE_LOOP('',(#121));
#96=EDGE_LOOP('',(#122));
#97=EDGE_LOOP('',(#123));
#98=EDGE_LOOP('',(#124));
#99=EDGE_LOOP('',(#125));
#100=EDGE_LOOP('',(#126));
#101=EDGE_LOOP('',(#127));
#102=EDGE_LOOP('',(#128));
#103=EDGE_LOOP('',(#129));
#104=EDGE_LOOP('',(#130));
#105=EDGE_LOOP('',(#131));
#106=EDGE_LOOP('',(#132));
#107=EDGE_LOOP('',(#133));
#108=EDGE_LOOP('',(#134));
#109=EDGE_LOOP('',(#135));
#110=EDGE_LOOP('',(#136));
#111=EDGE_LOOP('',(#137));
#112=EDGE_LOOP('',(#138));
#113=EDGE_LOOP('',(#139));
#114=EDGE_LOOP('',(#140));
#115=EDGE_LOOP('',(#141));
#116=EDGE_LOOP('',(#142));
#117=EDGE_LOOP('',(#143));
#118=EDGE_LOOP('',(#144));
#119=EDGE_LOOP('',(#145));
#120=EDGE_LOOP('',(#146));
#121=ORIENTED_EDGE('',*,*,#160,.F.);
#122=ORIENTED_EDGE('',*,*,#161,.F.);
#123=ORIENTED_EDGE('',*,*,#160,.T.);
#124=ORIENTED_EDGE('',*,*,#162,.F.);
#125=ORIENTED_EDGE('',*,*,#161,.T.);
#126=ORIENTED_EDGE('',*,*,#163,.F.);
#127=ORIENTED_EDGE('',*,*,#162,.T.);
#128=ORIENTED_EDGE('',*,*,#164,.F.);
#129=ORIENTED_EDGE('',*,*,#163,.T.);
#130=ORIENTED_EDGE('',*,*,#165,.F.);
#131=ORIENTED_EDGE('',*,*,#164,.T.);
#132=ORIENTED_EDGE('',*,*,#166,.F.);
#133=ORIENTED_EDGE('',*,*,#165,.T.);
#134=ORIENTED_EDGE('',*,*,#167,.F.);
#135=ORIENTED_EDGE('',*,*,#166,.T.);
#136=ORIENTED_EDGE('',*,*,#168,.F.);
#137=ORIENTED_EDGE('',*,*,#167,.T.);
#138=ORIENTED_EDGE('',*,*,#169,.F.);
#139=ORIENTED_EDGE('',*,*,#168,.T.);
#140=ORIENTED_EDGE('',*,*,#170,.F.);
#141=ORIENTED_EDGE('',*,*,#169,.T.);
#142=ORIENTED_EDGE('',*,*,#171,.F.);
#143=ORIENTED_EDGE('',*,*,#170,.T.);
#144=ORIENTED_EDGE('',*,*,#172,.F.);
#145=ORIENTED_EDGE('',*,*,#171,.T.);
#146=ORIENTED_EDGE('',*,*,#172,.T.);
#147=VERTEX_POINT('',#290);
#148=VERTEX_POINT('',#293);
#149=VERTEX_POINT('',#296);
#150=VERTEX_POINT('',#299);
#151=VERTEX_POINT('',#302);
#152=VERTEX_POINT('',#305);
#153=VERTEX_POINT('',#308);
#154=VERTEX_POINT('',#311);
#155=VERTEX_POINT('',#314);
#156=VERTEX_POINT('',#317);
#157=VERTEX_POINT('',#320);
#158=VERTEX_POINT('',#323);
#159=VERTEX_POINT('',#326);
#160=EDGE_CURVE('',#147,#147,#173,.T.);
#161=EDGE_CURVE('',#148,#148,#174,.T.);
#162=EDGE_CURVE('',#149,#149,#175,.T.);
#163=EDGE_CURVE('',#150,#150,#176,.T.);
#164=EDGE_CURVE('',#151,#151,#177,.T.);
#165=EDGE_CURVE('',#152,#152,#178,.T.);
#166=EDGE_CURVE('',#153,#153,#179,.T.);
#167=EDGE_CURVE('',#154,#154,#180,.T.);
#168=EDGE_CURVE('',#155,#155,#181,.T.);
#169=EDGE_CURVE('',#156,#156,#182,.T.);
#170=EDGE_CURVE('',#157,#157,#183,.T.);
#171=EDGE_CURVE('',#158,#158,#184,.T.);
#172=EDGE_CURVE('',#159,#159,#185,.T.);
#173=CIRCLE('',#203,0.875000000000143);
#174=CIRCLE('',#205,0.875000000000307);
#175=CIRCLE('',#207,1.6);
#176=CIRCLE('',#209,1.59999999999998);
#177=CIRCLE('',#211,1.40000000000029);
#178=CIRCLE('',#213,1.40000000000021);
#179=CIRCLE('',#215,1.5999999999999);
#180=CIRCLE('',#217,1.59999999999986);
#181=CIRCLE('',#219,1.30000000000016);
#182=CIRCLE('',#221,1.30000000000012);
#183=CIRCLE('',#223,1.60000000000001);
#184=CIRCLE('',#225,0.800000000000082);
#185=CIRCLE('',#227,0.799999999999811);
#186=INVISIBILITY((#188));
#187=PRESENTATION_LAYER_ASSIGNMENT('1','Layer 1',(#287,#39));
#188=PRESENTATION_LAYER_ASSIGNMENT('130','Layer 130',(#288));
#189=STYLED_ITEM('',(#192),#287);
#190=STYLED_ITEM('',(#193),#288);
#191=STYLED_ITEM('',(#194),#39);
#192=PRESENTATION_STYLE_ASSIGNMENT((#195));
#193=PRESENTATION_STYLE_ASSIGNMENT((#196));
#194=PRESENTATION_STYLE_ASSIGNMENT((#34));
#195=POINT_STYLE('',#197,POSITIVE_LENGTH_MEASURE(3.),#199);
#196=POINT_STYLE('',#198,POSITIVE_LENGTH_MEASURE(3.),#200);
#197=PRE_DEFINED_POINT_MARKER_SYMBOL('plus');
#198=PRE_DEFINED_POINT_MARKER_SYMBOL('plus');
#199=COLOUR_RGB('Medium Royal',0.2,0.4,0.8);
#200=COLOUR_RGB('Medium Maroon',0.6,0.4,0.4);
#201=COLOUR_RGB('SILBER',0.749996185244526,0.899992370489052,0.899992370489052);
#202=AXIS2_PLACEMENT_3D('',#286,#230,#231);
#203=AXIS2_PLACEMENT_3D('',#289,#232,#233);
#204=AXIS2_PLACEMENT_3D('',#291,#234,#235);
#205=AXIS2_PLACEMENT_3D('',#292,#236,#237);
#206=AXIS2_PLACEMENT_3D('',#294,#238,#239);
#207=AXIS2_PLACEMENT_3D('',#295,#240,#241);
#208=AXIS2_PLACEMENT_3D('',#297,#242,#243);
#209=AXIS2_PLACEMENT_3D('',#298,#244,#245);
#210=AXIS2_PLACEMENT_3D('',#300,#246,#247);
#211=AXIS2_PLACEMENT_3D('',#301,#248,#249);
#212=AXIS2_PLACEMENT_3D('',#303,#250,#251);
#213=AXIS2_PLACEMENT_3D('',#304,#252,#253);
#214=AXIS2_PLACEMENT_3D('',#306,#254,#255);
#215=AXIS2_PLACEMENT_3D('',#307,#256,#257);
#216=AXIS2_PLACEMENT_3D('',#309,#258,#259);
#217=AXIS2_PLACEMENT_3D('',#310,#260,#261);
#218=AXIS2_PLACEMENT_3D('',#312,#262,#263);
#219=AXIS2_PLACEMENT_3D('',#313,#264,#265);
#220=AXIS2_PLACEMENT_3D('',#315,#266,#267);
#221=AXIS2_PLACEMENT_3D('',#316,#268,#269);
#222=AXIS2_PLACEMENT_3D('',#318,#270,#271);
#223=AXIS2_PLACEMENT_3D('',#319,#272,#273);
#224=AXIS2_PLACEMENT_3D('',#321,#274,#275);
#225=AXIS2_PLACEMENT_3D('',#322,#276,#277);
#226=AXIS2_PLACEMENT_3D('',#324,#278,#279);
#227=AXIS2_PLACEMENT_3D('',#325,#280,#281);
#228=AXIS2_PLACEMENT_3D('',#327,#282,#283);
#229=AXIS2_PLACEMENT_3D('',#328,#284,#285);
#230=DIRECTION('',(0.,0.,1.));
#231=DIRECTION('',(1.,0.,0.));
#232=DIRECTION('',(-2.05044314860459E-14,1.,0.));
#233=DIRECTION('',(-1.,-1.98254111540174E-14,0.));
#234=DIRECTION('',(-2.05044314860459E-14,1.,0.));
#235=DIRECTION('',(-1.,-2.05044314860459E-14,0.));
#236=DIRECTION('',(-2.05044314860459E-14,1.,0.));
#237=DIRECTION('',(-1.,-2.05044314860459E-14,0.));
#238=DIRECTION('',(-2.05044314860459E-14,1.,0.));
#239=DIRECTION('',(-1.,-1.98254111540156E-14,0.));
#240=DIRECTION('',(-2.05044314860459E-14,1.,0.));
#241=DIRECTION('',(-1.,-2.05044314860459E-14,0.));
#242=DIRECTION('',(-2.05044314860459E-14,1.,0.));
#243=DIRECTION('',(-1.,-2.05044314860459E-14,0.));
#244=DIRECTION('',(-2.05044314860459E-14,1.,0.));
#245=DIRECTION('',(-1.,-2.04643160056641E-14,0.));
#246=DIRECTION('',(-2.05044314860459E-14,1.,0.));
#247=DIRECTION('',(-1.,-1.95156391047392E-14,0.));
#248=DIRECTION('',(-2.05044314860459E-14,1.,0.));
#249=DIRECTION('',(-1.,-2.04449552525796E-14,0.));
#250=DIRECTION('',(2.05044314860459E-14,-1.,0.));
#251=DIRECTION('',(1.,2.05044314860459E-14,0.));
#252=DIRECTION('',(-2.05044314860459E-14,1.,0.));
#253=DIRECTION('',(-1.,-2.04449552525808E-14,0.));
#254=DIRECTION('',(-2.05044314860459E-14,1.,0.));
#255=DIRECTION('',(-1.,-1.98254111540172E-14,0.));
#256=DIRECTION('',(-2.05044314860459E-14,1.,0.));
#257=DIRECTION('',(-1.,-2.05998412772259E-14,0.));
#258=DIRECTION('',(-2.05044314860459E-14,1.,0.));
#259=DIRECTION('',(-1.,-2.05044314860459E-14,0.));
#260=DIRECTION('',(-2.05044314860459E-14,1.,0.));
#261=DIRECTION('',(-1.,-2.05998412772264E-14,0.));
#262=DIRECTION('',(-2.05044314860459E-14,1.,0.));
#263=DIRECTION('',(-1.,-1.95156391047406E-14,0.));
#264=DIRECTION('',(-2.05044314860459E-14,1.,0.));
#265=DIRECTION('',(-1.,-2.06832414443363E-14,0.));
#266=DIRECTION('',(2.05044314860459E-14,-1.,0.));
#267=DIRECTION('',(1.,2.05044314860459E-14,0.));
#268=DIRECTION('',(-2.05044314860459E-14,1.,0.));
#269=DIRECTION('',(-1.,-2.00160401074228E-14,0.));
#270=DIRECTION('',(-2.05044314860459E-14,1.,0.));
#271=DIRECTION('',(-1.,-2.13504427812507E-14,0.));
#272=DIRECTION('',(-2.05044314860459E-14,1.,0.));
#273=DIRECTION('',(-1.,-2.05998412772245E-14,0.));
#274=DIRECTION('',(-2.05044314860459E-14,1.,0.));
#275=DIRECTION('',(-1.,-2.05044314860459E-14,0.));
#276=DIRECTION('',(-2.05044314860459E-14,1.,0.));
#277=DIRECTION('',(-1.,-1.95156391047371E-14,0.));
#278=DIRECTION('',(2.05044314860459E-14,-1.,0.));
#279=DIRECTION('',(1.,2.03881842794104E-14,0.));
#280=DIRECTION('',(-2.05044314860459E-14,1.,0.));
#281=DIRECTION('',(-1.,-2.16840434497152E-14,0.));
#282=DIRECTION('',(-2.05044314860459E-14,1.,0.));
#283=DIRECTION('',(-1.,-2.16840434497115E-14,0.));
#284=DIRECTION('',(-2.05656638260033E-14,0.999999999999999,0.));
#285=DIRECTION('',(-1.,-2.16840434497101E-14,0.));
#286=CARTESIAN_POINT('',(0.,0.,0.));
#287=CARTESIAN_POINT('',(-5.18696197104873E-13,25.,0.));
#288=CARTESIAN_POINT('',(-1.9062529332814E-13,9.00000000000004,0.));
#289=CARTESIAN_POINT('',(-1.70120861842094E-13,8.00000000000002,0.));
#290=CARTESIAN_POINT('',(-0.875000000000313,8.00000000000001,0.));
#291=CARTESIAN_POINT('',(-1.81188397618826E-13,8.00000000000002,0.));
#292=CARTESIAN_POINT('',(-6.0854099537268E-15,1.73472347597681E-14,0.));
#293=CARTESIAN_POINT('',(-0.875000000000313,-5.94142790528345E-16,0.));
#294=CARTESIAN_POINT('',(-5.18696197104873E-13,25.,0.));
#295=CARTESIAN_POINT('',(-6.0854099537271E-15,3.12250225675825E-14,0.));
#296=CARTESIAN_POINT('',(-1.60000000000001,-1.58206781009088E-15,0.));
#297=CARTESIAN_POINT('',(-0.875000000000313,7.43285641368849E-15,0.));
#298=CARTESIAN_POINT('',(-2.65898414397731E-14,1.00000000000004,0.));
#299=CARTESIAN_POINT('',(-1.60000000000001,1.00000000000001,0.));
#300=CARTESIAN_POINT('',(-5.18696197104873E-13,25.,0.));
#301=CARTESIAN_POINT('',(-2.6589841439773E-14,1.00000000000004,0.));
#302=CARTESIAN_POINT('',(-1.40000000000031,1.00000000000001,0.));
#303=CARTESIAN_POINT('',(-1.60000000000001,1.00000000000001,0.));
#304=CARTESIAN_POINT('',(-1.08607567383956E-13,5.00000000000003,0.));
#305=CARTESIAN_POINT('',(-1.40000000000031,5.,0.));
#306=CARTESIAN_POINT('',(-5.18696197104873E-13,25.,0.));
#307=CARTESIAN_POINT('',(-1.08607567383956E-13,5.00000000000004,0.));
#308=CARTESIAN_POINT('',(-1.60000000000001,5.,0.));
#309=CARTESIAN_POINT('',(-1.40000000000031,5.00000000000001,0.));
#310=CARTESIAN_POINT('',(-1.49616430356048E-13,7.00000000000004,0.));
#311=CARTESIAN_POINT('',(-1.60000000000001,7.,0.));
#312=CARTESIAN_POINT('',(-5.18696197104873E-13,25.,0.));
#313=CARTESIAN_POINT('',(-1.49616430356048E-13,7.00000000000003,0.));
#314=CARTESIAN_POINT('',(-1.30000000000031,7.,0.));
#315=CARTESIAN_POINT('',(-1.60000000000001,7.,0.));
#316=CARTESIAN_POINT('',(-1.9062529332814E-13,9.00000000000003,0.));
#317=CARTESIAN_POINT('',(-1.30000000000031,9.00000000000001,0.));
#318=CARTESIAN_POINT('',(-5.18696197104873E-13,25.,0.));
#319=CARTESIAN_POINT('',(-1.9062529332814E-13,9.00000000000004,0.));
#320=CARTESIAN_POINT('',(-1.6000000000002,9.,0.));
#321=CARTESIAN_POINT('',(-1.30000000000031,9.00000000000001,0.));
#322=CARTESIAN_POINT('',(-2.31634156300231E-13,11.,0.));
#323=CARTESIAN_POINT('',(-0.800000000000314,11.,0.));
#324=CARTESIAN_POINT('',(-1.9062529332814E-13,9.00000000000004,0.));
#325=CARTESIAN_POINT('',(-5.02292651916037E-13,24.2,0.));
#326=CARTESIAN_POINT('',(-0.800000000000313,24.2,0.));
#327=CARTESIAN_POINT('',(-5.18696197104873E-13,25.,0.));
#328=CARTESIAN_POINT('',(-5.06539254985228E-13,24.2,0.));
#329=MECHANICAL_DESIGN_GEOMETRIC_PRESENTATION_REPRESENTATION('',(#189,#190,
#191),#330);
#330=(
GEOMETRIC_REPRESENTATION_CONTEXT(3)
GLOBAL_UNCERTAINTY_ASSIGNED_CONTEXT((#331))
GLOBAL_UNIT_ASSIGNED_CONTEXT((#337,#333,#332))
REPRESENTATION_CONTEXT('100105289ugm000_b','TOP_LEVEL_ASSEMBLY_PART')
);
#331=UNCERTAINTY_MEASURE_WITH_UNIT(LENGTH_MEASURE(2.E-5),#337,
'DISTANCE_ACCURACY_VALUE','Maximum Tolerance applied to model');
#332=(
NAMED_UNIT(*)
SI_UNIT($,.STERADIAN.)
SOLID_ANGLE_UNIT()
);
#333=(
CONVERSION_BASED_UNIT('DEGREE',#335)
NAMED_UNIT(#334)
PLANE_ANGLE_UNIT()
);
#334=DIMENSIONAL_EXPONENTS(0.,0.,0.,0.,0.,0.,0.);
#335=PLANE_ANGLE_MEASURE_WITH_UNIT(PLANE_ANGLE_MEASURE(0.0174532925),#336);
#336=(
NAMED_UNIT(*)
PLANE_ANGLE_UNIT()
SI_UNIT($,.RADIAN.)
);
#337=(
LENGTH_UNIT()
NAMED_UNIT(*)
SI_UNIT(.MILLI.,.METRE.)
);
ENDSEC;
END-ISO-10303-21;
