ISO-10303-21;
HEADER;
/* Generated by software containing ST-Developer
 * from STEP Tools, Inc. (www.steptools.com) 
 */
/* OPTION: using custom schema-name function */

FILE_DESCRIPTION(
/* description */ (''),
/* implementation_level */ '2;1');

FILE_NAME(
/* name */ '100105265ugm000_b.stp',
/* time_stamp */ '2017-09-28T17:05:45+02:00',
/* author */ (''),
/* organization */ (''),
/* preprocessor_version */ 'ST-DEVELOPER v16',
/* originating_system */ 'SIEMENS PLM Software NX 10.0',
/* authorisation */ '');

FILE_SCHEMA (('AUTOMOTIVE_DESIGN { 1 0 10303 214 3 1 1 1 }'));
ENDSEC;

DATA;
#10=GEOMETRICALLY_BOUNDED_WIREFRAME_SHAPE_REPRESENTATION(
'100105265ugm000_b-None',(#33),#328);
#11=PROPERTY_DEFINITION_REPRESENTATION(#15,#13);
#12=PROPERTY_DEFINITION_REPRESENTATION(#16,#14);
#13=REPRESENTATION('',(#17),#328);
#14=REPRESENTATION('',(#18),#328);
#15=PROPERTY_DEFINITION('pmi validation property','',#23);
#16=PROPERTY_DEFINITION('pmi validation property','',#23);
#17=VALUE_REPRESENTATION_ITEM('number of annotations',COUNT_MEASURE(0.));
#18=VALUE_REPRESENTATION_ITEM('number of views',COUNT_MEASURE(0.));
#19=SHAPE_REPRESENTATION_RELATIONSHIP('None',
'relationship between 100105265ugm000_b-None and 100105265ugm000_b-Non
e',#32,#21);
#20=SHAPE_REPRESENTATION_RELATIONSHIP('None',
'relationship between 100105265ugm000_b-None and 100105265ugm000_b-Non
e',#32,#10);
#21=ADVANCED_BREP_SHAPE_REPRESENTATION('100105265ugm000_b-None',(#39),#328);
#22=SHAPE_DEFINITION_REPRESENTATION(#23,#32);
#23=PRODUCT_DEFINITION_SHAPE('','',#24);
#24=PRODUCT_DEFINITION(' ','',#26,#25);
#25=PRODUCT_DEFINITION_CONTEXT('part definition',#31,'design');
#26=PRODUCT_DEFINITION_FORMATION_WITH_SPECIFIED_SOURCE(' ',' ',#28,
 .NOT_KNOWN.);
#27=PRODUCT_RELATED_PRODUCT_CATEGORY('part','',(#28));
#28=PRODUCT('100105265ugm000_b','100105265ugm000_b',' ',(#29));
#29=PRODUCT_CONTEXT(' ',#31,'mechanical');
#30=APPLICATION_PROTOCOL_DEFINITION('international standard',
'automotive_design',2010,#31);
#31=APPLICATION_CONTEXT(
'core data for automotive mechanical design processes');
#32=SHAPE_REPRESENTATION('100105265ugm000_b-None',(#200),#328);
#33=GEOMETRIC_CURVE_SET('None',(#285));
#34=SURFACE_STYLE_USAGE(.BOTH.,#35);
#35=SURFACE_SIDE_STYLE('',(#36));
#36=SURFACE_STYLE_FILL_AREA(#37);
#37=FILL_AREA_STYLE('',(#38));
#38=FILL_AREA_STYLE_COLOUR('',#199);
#39=MANIFOLD_SOLID_BREP('',#40);
#40=CLOSED_SHELL('',(#76,#77,#78,#79,#80,#81,#82,#83,#84,#85,#86,#87,#88,
#89));
#41=SPHERICAL_SURFACE('',#227,0.799999999999991);
#42=VERTEX_LOOP('',#162);
#43=CONICAL_SURFACE('',#224,0.800000000000081,21.8014094863502);
#44=CYLINDRICAL_SURFACE('',#204,1.12500000000022);
#45=CYLINDRICAL_SURFACE('',#208,1.59999999999999);
#46=CYLINDRICAL_SURFACE('',#212,1.40000000000025);
#47=CYLINDRICAL_SURFACE('',#216,1.59999999999988);
#48=CYLINDRICAL_SURFACE('',#220,1.30000000000014);
#49=CYLINDRICAL_SURFACE('',#226,0.799999999999944);
#50=FACE_BOUND('',#98,.T.);
#51=FACE_BOUND('',#99,.T.);
#52=FACE_BOUND('',#100,.T.);
#53=FACE_BOUND('',#101,.T.);
#54=FACE_BOUND('',#102,.T.);
#55=FACE_BOUND('',#103,.T.);
#56=FACE_BOUND('',#104,.T.);
#57=FACE_BOUND('',#105,.T.);
#58=FACE_BOUND('',#106,.T.);
#59=FACE_BOUND('',#107,.T.);
#60=FACE_BOUND('',#108,.T.);
#61=FACE_BOUND('',#109,.T.);
#62=FACE_BOUND('',#110,.T.);
#63=FACE_BOUND('',#111,.T.);
#64=FACE_BOUND('',#112,.T.);
#65=FACE_BOUND('',#113,.T.);
#66=FACE_BOUND('',#114,.T.);
#67=FACE_BOUND('',#115,.T.);
#68=FACE_BOUND('',#116,.T.);
#69=FACE_BOUND('',#117,.T.);
#70=FACE_BOUND('',#118,.T.);
#71=FACE_BOUND('',#119,.T.);
#72=FACE_BOUND('',#120,.T.);
#73=FACE_BOUND('',#121,.T.);
#74=FACE_BOUND('',#122,.T.);
#75=FACE_BOUND('',#42,.T.);
#76=ADVANCED_FACE('',(#96),#90,.T.);
#77=ADVANCED_FACE('',(#50,#51),#44,.F.);
#78=ADVANCED_FACE('',(#52,#53),#91,.T.);
#79=ADVANCED_FACE('',(#54,#55),#45,.T.);
#80=ADVANCED_FACE('',(#56,#57),#92,.T.);
#81=ADVANCED_FACE('',(#58,#59),#46,.T.);
#82=ADVANCED_FACE('',(#60,#61),#93,.T.);
#83=ADVANCED_FACE('',(#62,#63),#47,.T.);
#84=ADVANCED_FACE('',(#64,#65),#94,.T.);
#85=ADVANCED_FACE('',(#66,#67),#48,.T.);
#86=ADVANCED_FACE('',(#68,#69),#95,.T.);
#87=ADVANCED_FACE('',(#70,#71),#43,.T.);
#88=ADVANCED_FACE('',(#72,#73),#49,.T.);
#89=ADVANCED_FACE('',(#74,#75),#41,.T.);
#90=PLANE('',#202);
#91=PLANE('',#206);
#92=PLANE('',#210);
#93=PLANE('',#214);
#94=PLANE('',#218);
#95=PLANE('',#222);
#96=FACE_OUTER_BOUND('',#97,.T.);
#97=EDGE_LOOP('',(#123));
#98=EDGE_LOOP('',(#124));
#99=EDGE_LOOP('',(#125));
#100=EDGE_LOOP('',(#126));
#101=EDGE_LOOP('',(#127));
#102=EDGE_LOOP('',(#128));
#103=EDGE_LOOP('',(#129));
#104=EDGE_LOOP('',(#130));
#105=EDGE_LOOP('',(#131));
#106=EDGE_LOOP('',(#132));
#107=EDGE_LOOP('',(#133));
#108=EDGE_LOOP('',(#134));
#109=EDGE_LOOP('',(#135));
#110=EDGE_LOOP('',(#136));
#111=EDGE_LOOP('',(#137));
#112=EDGE_LOOP('',(#138));
#113=EDGE_LOOP('',(#139));
#114=EDGE_LOOP('',(#140));
#115=EDGE_LOOP('',(#141));
#116=EDGE_LOOP('',(#142));
#117=EDGE_LOOP('',(#143));
#118=EDGE_LOOP('',(#144));
#119=EDGE_LOOP('',(#145));
#120=EDGE_LOOP('',(#146));
#121=EDGE_LOOP('',(#147));
#122=EDGE_LOOP('',(#148));
#123=ORIENTED_EDGE('',*,*,#163,.T.);
#124=ORIENTED_EDGE('',*,*,#163,.F.);
#125=ORIENTED_EDGE('',*,*,#164,.T.);
#126=ORIENTED_EDGE('',*,*,#164,.F.);
#127=ORIENTED_EDGE('',*,*,#165,.T.);
#128=ORIENTED_EDGE('',*,*,#165,.F.);
#129=ORIENTED_EDGE('',*,*,#166,.T.);
#130=ORIENTED_EDGE('',*,*,#167,.T.);
#131=ORIENTED_EDGE('',*,*,#166,.F.);
#132=ORIENTED_EDGE('',*,*,#167,.F.);
#133=ORIENTED_EDGE('',*,*,#168,.T.);
#134=ORIENTED_EDGE('',*,*,#168,.F.);
#135=ORIENTED_EDGE('',*,*,#169,.T.);
#136=ORIENTED_EDGE('',*,*,#169,.F.);
#137=ORIENTED_EDGE('',*,*,#170,.T.);
#138=ORIENTED_EDGE('',*,*,#171,.T.);
#139=ORIENTED_EDGE('',*,*,#170,.F.);
#140=ORIENTED_EDGE('',*,*,#171,.F.);
#141=ORIENTED_EDGE('',*,*,#172,.T.);
#142=ORIENTED_EDGE('',*,*,#172,.F.);
#143=ORIENTED_EDGE('',*,*,#173,.T.);
#144=ORIENTED_EDGE('',*,*,#173,.F.);
#145=ORIENTED_EDGE('',*,*,#174,.T.);
#146=ORIENTED_EDGE('',*,*,#174,.F.);
#147=ORIENTED_EDGE('',*,*,#175,.T.);
#148=ORIENTED_EDGE('',*,*,#175,.F.);
#149=VERTEX_POINT('',#287);
#150=VERTEX_POINT('',#290);
#151=VERTEX_POINT('',#293);
#152=VERTEX_POINT('',#296);
#153=VERTEX_POINT('',#299);
#154=VERTEX_POINT('',#302);
#155=VERTEX_POINT('',#305);
#156=VERTEX_POINT('',#308);
#157=VERTEX_POINT('',#311);
#158=VERTEX_POINT('',#314);
#159=VERTEX_POINT('',#317);
#160=VERTEX_POINT('',#320);
#161=VERTEX_POINT('',#323);
#162=VERTEX_POINT('',#325);
#163=EDGE_CURVE('',#149,#149,#176,.T.);
#164=EDGE_CURVE('',#150,#150,#177,.T.);
#165=EDGE_CURVE('',#151,#151,#178,.T.);
#166=EDGE_CURVE('',#152,#152,#179,.T.);
#167=EDGE_CURVE('',#153,#153,#180,.T.);
#168=EDGE_CURVE('',#154,#154,#181,.T.);
#169=EDGE_CURVE('',#155,#155,#182,.T.);
#170=EDGE_CURVE('',#156,#156,#183,.T.);
#171=EDGE_CURVE('',#157,#157,#184,.T.);
#172=EDGE_CURVE('',#158,#158,#185,.T.);
#173=EDGE_CURVE('',#159,#159,#186,.T.);
#174=EDGE_CURVE('',#160,#160,#187,.T.);
#175=EDGE_CURVE('',#161,#161,#188,.T.);
#176=CIRCLE('',#201,1.12500000000014);
#177=CIRCLE('',#203,1.12500000000031);
#178=CIRCLE('',#205,1.6);
#179=CIRCLE('',#207,1.59999999999998);
#180=CIRCLE('',#209,1.40000000000029);
#181=CIRCLE('',#211,1.40000000000021);
#182=CIRCLE('',#213,1.5999999999999);
#183=CIRCLE('',#215,1.59999999999986);
#184=CIRCLE('',#217,1.30000000000017);
#185=CIRCLE('',#219,1.30000000000012);
#186=CIRCLE('',#221,1.60000000000001);
#187=CIRCLE('',#223,0.800000000000082);
#188=CIRCLE('',#225,0.79999999999981);
#189=INVISIBILITY((#190));
#190=PRESENTATION_LAYER_ASSIGNMENT('130','Layer 130',(#285));
#191=PRESENTATION_LAYER_ASSIGNMENT('1','Layer 1',(#39));
#192=STYLED_ITEM('',(#194),#285);
#193=STYLED_ITEM('',(#195),#39);
#194=PRESENTATION_STYLE_ASSIGNMENT((#196));
#195=PRESENTATION_STYLE_ASSIGNMENT((#34));
#196=POINT_STYLE('',#197,POSITIVE_LENGTH_MEASURE(3.),#198);
#197=PRE_DEFINED_POINT_MARKER_SYMBOL('plus');
#198=COLOUR_RGB('Medium Maroon',0.6,0.4,0.4);
#199=COLOUR_RGB('SILBER_1',0.749996185244526,0.899992370489052,0.899992370489052);
#200=AXIS2_PLACEMENT_3D('',#284,#228,#229);
#201=AXIS2_PLACEMENT_3D('',#286,#230,#231);
#202=AXIS2_PLACEMENT_3D('',#288,#232,#233);
#203=AXIS2_PLACEMENT_3D('',#289,#234,#235);
#204=AXIS2_PLACEMENT_3D('',#291,#236,#237);
#205=AXIS2_PLACEMENT_3D('',#292,#238,#239);
#206=AXIS2_PLACEMENT_3D('',#294,#240,#241);
#207=AXIS2_PLACEMENT_3D('',#295,#242,#243);
#208=AXIS2_PLACEMENT_3D('',#297,#244,#245);
#209=AXIS2_PLACEMENT_3D('',#298,#246,#247);
#210=AXIS2_PLACEMENT_3D('',#300,#248,#249);
#211=AXIS2_PLACEMENT_3D('',#301,#250,#251);
#212=AXIS2_PLACEMENT_3D('',#303,#252,#253);
#213=AXIS2_PLACEMENT_3D('',#304,#254,#255);
#214=AXIS2_PLACEMENT_3D('',#306,#256,#257);
#215=AXIS2_PLACEMENT_3D('',#307,#258,#259);
#216=AXIS2_PLACEMENT_3D('',#309,#260,#261);
#217=AXIS2_PLACEMENT_3D('',#310,#262,#263);
#218=AXIS2_PLACEMENT_3D('',#312,#264,#265);
#219=AXIS2_PLACEMENT_3D('',#313,#266,#267);
#220=AXIS2_PLACEMENT_3D('',#315,#268,#269);
#221=AXIS2_PLACEMENT_3D('',#316,#270,#271);
#222=AXIS2_PLACEMENT_3D('',#318,#272,#273);
#223=AXIS2_PLACEMENT_3D('',#319,#274,#275);
#224=AXIS2_PLACEMENT_3D('',#321,#276,#277);
#225=AXIS2_PLACEMENT_3D('',#322,#278,#279);
#226=AXIS2_PLACEMENT_3D('',#324,#280,#281);
#227=AXIS2_PLACEMENT_3D('',#326,#282,#283);
#228=DIRECTION('',(0.,0.,1.));
#229=DIRECTION('',(1.,0.,0.));
#230=DIRECTION('',(2.02170242138506E-14,-1.,-5.93507001970161E-16));
#231=DIRECTION('',(-1.,-2.00456935001739E-14,0.));
#232=DIRECTION('',(0.,-1.,0.));
#233=DIRECTION('',(0.,0.,1.));
#234=DIRECTION('',(2.0992192592891E-14,-1.,8.6736173798834E-16));
#235=DIRECTION('',(-1.,-2.15876699232611E-14,0.));
#236=DIRECTION('',(2.09664314823049E-14,-1.,8.67361737988403E-16));
#237=DIRECTION('',(-1.,-2.15876699232626E-14,0.));
#238=DIRECTION('',(1.87928376564154E-14,-1.,-8.34619221520636E-16));
#239=DIRECTION('',(-1.,-1.84314369322536E-14,-5.42101086242752E-16));
#240=DIRECTION('',(0.,-1.,0.));
#241=DIRECTION('',(0.,0.,1.));
#242=DIRECTION('',(2.09312175296774E-14,-1.,2.60208521396522E-15));
#243=DIRECTION('',(-1.,-2.05998412772248E-14,0.));
#244=DIRECTION('',(2.10097995691999E-14,-1.,8.67361737988403E-16));
#245=DIRECTION('',(-1.,-2.10064170919068E-14,0.));
#246=DIRECTION('',(1.85404308014414E-14,-1.,-9.53850538880532E-16));
#247=DIRECTION('',(-1.,-1.85863229568906E-14,-6.19544098563019E-16));
#248=DIRECTION('',(0.,1.,0.));
#249=DIRECTION('',(0.,0.,1.));
#250=DIRECTION('',(2.00360561475362E-14,-1.,0.));
#251=DIRECTION('',(-1.,-1.98254111540177E-14,0.));
#252=DIRECTION('',(1.9929674463856E-14,-1.,-8.67361737988403E-16));
#253=DIRECTION('',(-1.,-1.98254111540172E-14,0.));
#254=DIRECTION('',(1.94353278327044E-14,-1.,-8.34619221520689E-16));
#255=DIRECTION('',(-1.,-1.95156391047403E-14,-5.42101086242786E-16));
#256=DIRECTION('',(0.,-1.,0.));
#257=DIRECTION('',(0.,0.,1.));
#258=DIRECTION('',(2.10670674781765E-14,-1.,4.33680868994198E-16));
#259=DIRECTION('',(-1.,-2.11419423634692E-14,5.421010862428E-16));
#260=DIRECTION('',(2.03731780877856E-14,-1.,-4.3368086899421E-16));
#261=DIRECTION('',(-1.,-2.05998412772261E-14,4.33680868994168E-16));
#262=DIRECTION('',(2.18446659937793E-14,-1.,-5.13611828628024E-16));
#263=DIRECTION('',(-1.,-2.20176441181644E-14,0.));
#264=DIRECTION('',(0.,1.,0.));
#265=DIRECTION('',(0.,0.,1.));
#266=DIRECTION('',(2.16742206947724E-14,-1.,4.33680868994228E-16));
#267=DIRECTION('',(-1.,-2.13504427812511E-14,-6.67201336914096E-16));
#268=DIRECTION('',(2.19876200580084E-14,-1.,0.));
#269=DIRECTION('',(-1.,-2.13504427812507E-14,0.));
#270=DIRECTION('',(1.92747052886311E-14,-1.,1.6087039523037E-29));
#271=DIRECTION('',(-1.,-1.9515639104739E-14,-5.4210108624275E-16));
#272=DIRECTION('',(0.,-1.,0.));
#273=DIRECTION('',(0.,0.,1.));
#274=DIRECTION('',(2.05373081991425E-14,-1.,6.03993867215942E-16));
#275=DIRECTION('',(-1.,-2.16840434497079E-14,0.));
#276=DIRECTION('',(2.08166817117218E-14,-1.,0.));
#277=DIRECTION('',(-1.,-2.05240986104858E-14,7.85111918006803E-16));
#278=DIRECTION('',(2.02384405530675E-14,-1.,1.66923844304168E-15));
#279=DIRECTION('',(-1.,-2.16840434497152E-14,0.));
#280=DIRECTION('',(2.00778180089921E-14,-1.,8.346192215207E-16));
#281=DIRECTION('',(-1.,-2.16840434497116E-14,0.));
#282=DIRECTION('',(1.57764133360527E-14,-1.,-2.54044371315364E-15));
#283=DIRECTION('',(-1.,-1.73472347597683E-14,3.83323354171706E-15));
#284=CARTESIAN_POINT('',(0.,0.,0.));
#285=CARTESIAN_POINT('',(-1.83880688453542E-13,9.00000000000003,8.67361737988404E-16));
#286=CARTESIAN_POINT('',(-1.62196645003831E-13,8.00000000000002,0.));
#287=CARTESIAN_POINT('',(-1.1250000000003,8.,0.));
#288=CARTESIAN_POINT('',(1.23749999999999,8.00000000000001,-1.23750000000016));
#289=CARTESIAN_POINT('',(1.73472347597681E-15,2.42861286636753E-14,0.));
#290=CARTESIAN_POINT('',(-1.1250000000003,0.,0.));
#291=CARTESIAN_POINT('',(-1.63931368479808E-13,8.00000000000002,-3.46944695195361E-15));
#292=CARTESIAN_POINT('',(8.67361737988404E-16,3.46944695195361E-14,8.67361737988404E-16));
#293=CARTESIAN_POINT('',(-1.6,5.20417042793042E-15,0.));
#294=CARTESIAN_POINT('',(1.76,2.77555756156289E-14,-1.76));
#295=CARTESIAN_POINT('',(-1.82145964977565E-14,1.00000000000003,0.));
#296=CARTESIAN_POINT('',(-1.6,1.,0.));
#297=CARTESIAN_POINT('',(-1.99493199737333E-14,1.00000000000003,-8.67361737988404E-16));
#298=CARTESIAN_POINT('',(-1.90819582357449E-14,1.00000000000003,8.67361737988404E-16));
#299=CARTESIAN_POINT('',(-1.40000000000031,1.00000000000001,0.));
#300=CARTESIAN_POINT('',(-1.76,1.00000000000003,-1.75999999999998));
#301=CARTESIAN_POINT('',(-9.97465998686664E-14,5.00000000000003,0.));
#302=CARTESIAN_POINT('',(-1.40000000000031,5.,0.));
#303=CARTESIAN_POINT('',(-9.97465998686664E-14,5.00000000000003,1.73472347597681E-15));
#304=CARTESIAN_POINT('',(-9.97465998686664E-14,5.00000000000003,8.67361737988404E-16));
#305=CARTESIAN_POINT('',(-1.6,5.,1.92592994438724E-31));
#306=CARTESIAN_POINT('',(1.75999999999979,5.00000000000003,-1.75999999999989));
#307=CARTESIAN_POINT('',(-1.4137996329211E-13,7.00000000000004,-8.67361737988404E-16));
#308=CARTESIAN_POINT('',(-1.6,7.,-1.92592994438724E-31));
#309=CARTESIAN_POINT('',(-1.39645239816133E-13,7.00000000000004,0.));
#310=CARTESIAN_POINT('',(-1.39645239816133E-13,7.00000000000003,0.));
#311=CARTESIAN_POINT('',(-1.3000000000003,7.,0.));
#312=CARTESIAN_POINT('',(-1.75999999999999,7.00000000000003,-1.75999999999984));
#313=CARTESIAN_POINT('',(-1.83880688453542E-13,9.00000000000003,8.67361737988404E-16));
#314=CARTESIAN_POINT('',(-1.3000000000003,9.,-1.92592994438724E-31));
#315=CARTESIAN_POINT('',(-1.83880688453542E-13,9.00000000000003,0.));
#316=CARTESIAN_POINT('',(-1.83880688453542E-13,9.00000000000003,8.67361737988404E-16));
#317=CARTESIAN_POINT('',(-1.60000000000019,9.,1.92592994438724E-31));
#318=CARTESIAN_POINT('',(1.75999999999983,9.00000000000003,-1.76000000000001));
#319=CARTESIAN_POINT('',(-2.23779328401008E-13,11.,0.));
#320=CARTESIAN_POINT('',(-0.800000000000306,11.,0.));
#321=CARTESIAN_POINT('',(-2.24646690138997E-13,11.,-8.67361737988404E-16));
#322=CARTESIAN_POINT('',(-4.96130914129367E-13,24.2000000000011,0.));
#323=CARTESIAN_POINT('',(-0.800000000000306,24.200000000001,0.));
#324=CARTESIAN_POINT('',(-4.93528828915402E-13,24.2000000000011,-5.20417042793042E-15));
#325=CARTESIAN_POINT('',(-5.13478148889135E-13,24.9999999999999,0.));
#326=CARTESIAN_POINT('',(-5.04804531509251E-13,24.1999999999999,0.));
#327=MECHANICAL_DESIGN_GEOMETRIC_PRESENTATION_REPRESENTATION('',(#192,#193),
#328);
#328=(
GEOMETRIC_REPRESENTATION_CONTEXT(3)
GLOBAL_UNCERTAINTY_ASSIGNED_CONTEXT((#329))
GLOBAL_UNIT_ASSIGNED_CONTEXT((#335,#331,#330))
REPRESENTATION_CONTEXT('100105265ugm000_b','TOP_LEVEL_ASSEMBLY_PART')
);
#329=UNCERTAINTY_MEASURE_WITH_UNIT(LENGTH_MEASURE(2.E-5),#335,
'DISTANCE_ACCURACY_VALUE','Maximum Tolerance applied to model');
#330=(
NAMED_UNIT(*)
SI_UNIT($,.STERADIAN.)
SOLID_ANGLE_UNIT()
);
#331=(
CONVERSION_BASED_UNIT('DEGREE',#333)
NAMED_UNIT(#332)
PLANE_ANGLE_UNIT()
);
#332=DIMENSIONAL_EXPONENTS(0.,0.,0.,0.,0.,0.,0.);
#333=PLANE_ANGLE_MEASURE_WITH_UNIT(PLANE_ANGLE_MEASURE(0.0174532925),#334);
#334=(
NAMED_UNIT(*)
PLANE_ANGLE_UNIT()
SI_UNIT($,.RADIAN.)
);
#335=(
LENGTH_UNIT()
NAMED_UNIT(*)
SI_UNIT(.MILLI.,.METRE.)
);
ENDSEC;
END-ISO-10303-21;
