ISO-10303-21;
HEADER;
/* Generated by software containing ST-Developer
 * from STEP Tools, Inc. (www.steptools.com) 
 */
/* OPTION: using custom schema-name function */

FILE_DESCRIPTION(
/* description */ (''),
/* implementation_level */ '2;1');

FILE_NAME(
/* name */ '100095316ugm000_b.stp',
/* time_stamp */ '2017-10-27T15:18:51+02:00',
/* author */ (''),
/* organization */ (''),
/* preprocessor_version */ 'ST-DEVELOPER v16',
/* originating_system */ 'SIEMENS PLM Software NX 10.0',
/* authorisation */ '');

FILE_SCHEMA (('AUTOMOTIVE_DESIGN { 1 0 10303 214 3 1 1 1 }'));
ENDSEC;

DATA;
#10=GEOMETRICALLY_BOUNDED_WIREFRAME_SHAPE_REPRESENTATION(
'100095316ugm000_b-None',(#33),#504);
#11=PROPERTY_DEFINITION_REPRESENTATION(#15,#13);
#12=PROPERTY_DEFINITION_REPRESENTATION(#16,#14);
#13=REPRESENTATION('',(#17),#504);
#14=REPRESENTATION('',(#18),#504);
#15=PROPERTY_DEFINITION('pmi validation property','',#23);
#16=PROPERTY_DEFINITION('pmi validation property','',#23);
#17=VALUE_REPRESENTATION_ITEM('number of annotations',COUNT_MEASURE(0.));
#18=VALUE_REPRESENTATION_ITEM('number of views',COUNT_MEASURE(0.));
#19=SHAPE_REPRESENTATION_RELATIONSHIP('None',
'relationship between 100095316ugm000_b-None and 100095316ugm000_b-Non
e',#32,#21);
#20=SHAPE_REPRESENTATION_RELATIONSHIP('None',
'relationship between 100095316ugm000_b-None and 100095316ugm000_b-Non
e',#32,#10);
#21=ADVANCED_BREP_SHAPE_REPRESENTATION('100095316ugm000_b-None',(#141),
#504);
#22=SHAPE_DEFINITION_REPRESENTATION(#23,#32);
#23=PRODUCT_DEFINITION_SHAPE('','',#24);
#24=PRODUCT_DEFINITION(' ','',#26,#25);
#25=PRODUCT_DEFINITION_CONTEXT('part definition',#31,'design');
#26=PRODUCT_DEFINITION_FORMATION_WITH_SPECIFIED_SOURCE(' ',' ',#28,
 .NOT_KNOWN.);
#27=PRODUCT_RELATED_PRODUCT_CATEGORY('part','',(#28));
#28=PRODUCT('100095316ugm000_b','100095316ugm000_b',' ',(#29));
#29=PRODUCT_CONTEXT(' ',#31,'mechanical');
#30=APPLICATION_PROTOCOL_DEFINITION('international standard',
'automotive_design',2010,#31);
#31=APPLICATION_CONTEXT(
'core data for automotive mechanical design processes');
#32=SHAPE_REPRESENTATION('100095316ugm000_b-None',(#350),#504);
#33=GEOMETRIC_CURVE_SET('None',(#453));
#34=OVER_RIDING_STYLED_ITEM('',(#328),#182,#325);
#35=OVER_RIDING_STYLED_ITEM('',(#329),#183,#325);
#36=OVER_RIDING_STYLED_ITEM('',(#330),#184,#325);
#37=OVER_RIDING_STYLED_ITEM('',(#331),#185,#325);
#38=OVER_RIDING_STYLED_ITEM('',(#332),#186,#325);
#39=OVER_RIDING_STYLED_ITEM('',(#333),#187,#325);
#40=OVER_RIDING_STYLED_ITEM('',(#334),#188,#325);
#41=OVER_RIDING_STYLED_ITEM('',(#335),#189,#325);
#42=OVER_RIDING_STYLED_ITEM('',(#336),#190,#325);
#43=OVER_RIDING_STYLED_ITEM('',(#337),#191,#325);
#44=OVER_RIDING_STYLED_ITEM('',(#338),#192,#325);
#45=OVER_RIDING_STYLED_ITEM('',(#339),#193,#325);
#46=OVER_RIDING_STYLED_ITEM('',(#340),#194,#325);
#47=OVER_RIDING_STYLED_ITEM('',(#341),#195,#325);
#48=OVER_RIDING_STYLED_ITEM('',(#342),#196,#325);
#49=OVER_RIDING_STYLED_ITEM('',(#343),#197,#325);
#50=OVER_RIDING_STYLED_ITEM('',(#344),#198,#325);
#51=SURFACE_STYLE_USAGE(.BOTH.,#69);
#52=SURFACE_STYLE_USAGE(.BOTH.,#70);
#53=SURFACE_STYLE_USAGE(.BOTH.,#71);
#54=SURFACE_STYLE_USAGE(.BOTH.,#72);
#55=SURFACE_STYLE_USAGE(.BOTH.,#73);
#56=SURFACE_STYLE_USAGE(.BOTH.,#74);
#57=SURFACE_STYLE_USAGE(.BOTH.,#75);
#58=SURFACE_STYLE_USAGE(.BOTH.,#76);
#59=SURFACE_STYLE_USAGE(.BOTH.,#77);
#60=SURFACE_STYLE_USAGE(.BOTH.,#78);
#61=SURFACE_STYLE_USAGE(.BOTH.,#79);
#62=SURFACE_STYLE_USAGE(.BOTH.,#80);
#63=SURFACE_STYLE_USAGE(.BOTH.,#81);
#64=SURFACE_STYLE_USAGE(.BOTH.,#82);
#65=SURFACE_STYLE_USAGE(.BOTH.,#83);
#66=SURFACE_STYLE_USAGE(.BOTH.,#84);
#67=SURFACE_STYLE_USAGE(.BOTH.,#85);
#68=SURFACE_STYLE_USAGE(.BOTH.,#86);
#69=SURFACE_SIDE_STYLE('',(#87));
#70=SURFACE_SIDE_STYLE('',(#88));
#71=SURFACE_SIDE_STYLE('',(#89));
#72=SURFACE_SIDE_STYLE('',(#90));
#73=SURFACE_SIDE_STYLE('',(#91));
#74=SURFACE_SIDE_STYLE('',(#92));
#75=SURFACE_SIDE_STYLE('',(#93));
#76=SURFACE_SIDE_STYLE('',(#94));
#77=SURFACE_SIDE_STYLE('',(#95));
#78=SURFACE_SIDE_STYLE('',(#96));
#79=SURFACE_SIDE_STYLE('',(#97));
#80=SURFACE_SIDE_STYLE('',(#98));
#81=SURFACE_SIDE_STYLE('',(#99));
#82=SURFACE_SIDE_STYLE('',(#100));
#83=SURFACE_SIDE_STYLE('',(#101));
#84=SURFACE_SIDE_STYLE('',(#102));
#85=SURFACE_SIDE_STYLE('',(#103));
#86=SURFACE_SIDE_STYLE('',(#104));
#87=SURFACE_STYLE_FILL_AREA(#105);
#88=SURFACE_STYLE_FILL_AREA(#106);
#89=SURFACE_STYLE_FILL_AREA(#107);
#90=SURFACE_STYLE_FILL_AREA(#108);
#91=SURFACE_STYLE_FILL_AREA(#109);
#92=SURFACE_STYLE_FILL_AREA(#110);
#93=SURFACE_STYLE_FILL_AREA(#111);
#94=SURFACE_STYLE_FILL_AREA(#112);
#95=SURFACE_STYLE_FILL_AREA(#113);
#96=SURFACE_STYLE_FILL_AREA(#114);
#97=SURFACE_STYLE_FILL_AREA(#115);
#98=SURFACE_STYLE_FILL_AREA(#116);
#99=SURFACE_STYLE_FILL_AREA(#117);
#100=SURFACE_STYLE_FILL_AREA(#118);
#101=SURFACE_STYLE_FILL_AREA(#119);
#102=SURFACE_STYLE_FILL_AREA(#120);
#103=SURFACE_STYLE_FILL_AREA(#121);
#104=SURFACE_STYLE_FILL_AREA(#122);
#105=FILL_AREA_STYLE('',(#123));
#106=FILL_AREA_STYLE('',(#124));
#107=FILL_AREA_STYLE('',(#125));
#108=FILL_AREA_STYLE('',(#126));
#109=FILL_AREA_STYLE('',(#127));
#110=FILL_AREA_STYLE('',(#128));
#111=FILL_AREA_STYLE('',(#129));
#112=FILL_AREA_STYLE('',(#130));
#113=FILL_AREA_STYLE('',(#131));
#114=FILL_AREA_STYLE('',(#132));
#115=FILL_AREA_STYLE('',(#133));
#116=FILL_AREA_STYLE('',(#134));
#117=FILL_AREA_STYLE('',(#135));
#118=FILL_AREA_STYLE('',(#136));
#119=FILL_AREA_STYLE('',(#137));
#120=FILL_AREA_STYLE('',(#138));
#121=FILL_AREA_STYLE('',(#139));
#122=FILL_AREA_STYLE('',(#140));
#123=FILL_AREA_STYLE_COLOUR('',#348);
#124=FILL_AREA_STYLE_COLOUR('',#349);
#125=FILL_AREA_STYLE_COLOUR('',#349);
#126=FILL_AREA_STYLE_COLOUR('',#349);
#127=FILL_AREA_STYLE_COLOUR('',#349);
#128=FILL_AREA_STYLE_COLOUR('',#349);
#129=FILL_AREA_STYLE_COLOUR('',#349);
#130=FILL_AREA_STYLE_COLOUR('',#349);
#131=FILL_AREA_STYLE_COLOUR('',#349);
#132=FILL_AREA_STYLE_COLOUR('',#349);
#133=FILL_AREA_STYLE_COLOUR('',#349);
#134=FILL_AREA_STYLE_COLOUR('',#349);
#135=FILL_AREA_STYLE_COLOUR('',#349);
#136=FILL_AREA_STYLE_COLOUR('',#349);
#137=FILL_AREA_STYLE_COLOUR('',#349);
#138=FILL_AREA_STYLE_COLOUR('',#349);
#139=FILL_AREA_STYLE_COLOUR('',#349);
#140=FILL_AREA_STYLE_COLOUR('',#349);
#141=MANIFOLD_SOLID_BREP('',#142);
#142=CLOSED_SHELL('',(#182,#183,#184,#185,#186,#187,#188,#189,#190,#191,
#192,#193,#194,#195,#196,#197,#198));
#143=CONICAL_SURFACE('',#380,1.9,44.9999996400595);
#144=CYLINDRICAL_SURFACE('',#354,0.249999999999999);
#145=CYLINDRICAL_SURFACE('',#358,0.400000000000004);
#146=CYLINDRICAL_SURFACE('',#362,1.65000000000001);
#147=CYLINDRICAL_SURFACE('',#366,2.14999999999999);
#148=CYLINDRICAL_SURFACE('',#370,2.6);
#149=CYLINDRICAL_SURFACE('',#374,2.39999999999998);
#150=CYLINDRICAL_SURFACE('',#378,2.85000000000004);
#151=CYLINDRICAL_SURFACE('',#382,1.90000000000002);
#152=FACE_BOUND('',#210,.T.);
#153=FACE_BOUND('',#211,.T.);
#154=FACE_BOUND('',#212,.T.);
#155=FACE_BOUND('',#213,.T.);
#156=FACE_BOUND('',#214,.T.);
#157=FACE_BOUND('',#215,.T.);
#158=FACE_BOUND('',#216,.T.);
#159=FACE_BOUND('',#217,.T.);
#160=FACE_BOUND('',#218,.T.);
#161=FACE_BOUND('',#219,.T.);
#162=FACE_BOUND('',#220,.T.);
#163=FACE_BOUND('',#221,.T.);
#164=FACE_BOUND('',#222,.T.);
#165=FACE_BOUND('',#223,.T.);
#166=FACE_BOUND('',#224,.T.);
#167=FACE_BOUND('',#225,.T.);
#168=FACE_BOUND('',#226,.T.);
#169=FACE_BOUND('',#227,.T.);
#170=FACE_BOUND('',#228,.T.);
#171=FACE_BOUND('',#229,.T.);
#172=FACE_BOUND('',#230,.T.);
#173=FACE_BOUND('',#231,.T.);
#174=FACE_BOUND('',#232,.T.);
#175=FACE_BOUND('',#233,.T.);
#176=FACE_BOUND('',#234,.T.);
#177=FACE_BOUND('',#235,.T.);
#178=FACE_BOUND('',#236,.T.);
#179=FACE_BOUND('',#237,.T.);
#180=FACE_BOUND('',#238,.T.);
#181=FACE_BOUND('',#239,.T.);
#182=ADVANCED_FACE('',(#207),#199,.T.);
#183=ADVANCED_FACE('',(#152,#153),#144,.F.);
#184=ADVANCED_FACE('',(#154,#155),#200,.T.);
#185=ADVANCED_FACE('',(#156,#157),#145,.T.);
#186=ADVANCED_FACE('',(#158,#159),#201,.T.);
#187=ADVANCED_FACE('',(#160,#161),#146,.F.);
#188=ADVANCED_FACE('',(#162,#163),#202,.T.);
#189=ADVANCED_FACE('',(#164,#165),#147,.T.);
#190=ADVANCED_FACE('',(#166,#167),#203,.T.);
#191=ADVANCED_FACE('',(#168,#169),#148,.T.);
#192=ADVANCED_FACE('',(#170,#171),#204,.T.);
#193=ADVANCED_FACE('',(#172,#173),#149,.T.);
#194=ADVANCED_FACE('',(#174,#175),#205,.T.);
#195=ADVANCED_FACE('',(#176,#177),#150,.T.);
#196=ADVANCED_FACE('',(#178,#179),#143,.T.);
#197=ADVANCED_FACE('',(#180,#181),#151,.T.);
#198=ADVANCED_FACE('',(#208),#206,.T.);
#199=PLANE('',#352);
#200=PLANE('',#356);
#201=PLANE('',#360);
#202=PLANE('',#364);
#203=PLANE('',#368);
#204=PLANE('',#372);
#205=PLANE('',#376);
#206=PLANE('',#383);
#207=FACE_OUTER_BOUND('',#209,.T.);
#208=FACE_OUTER_BOUND('',#240,.T.);
#209=EDGE_LOOP('',(#241));
#210=EDGE_LOOP('',(#242));
#211=EDGE_LOOP('',(#243));
#212=EDGE_LOOP('',(#244));
#213=EDGE_LOOP('',(#245));
#214=EDGE_LOOP('',(#246));
#215=EDGE_LOOP('',(#247));
#216=EDGE_LOOP('',(#248));
#217=EDGE_LOOP('',(#249));
#218=EDGE_LOOP('',(#250));
#219=EDGE_LOOP('',(#251));
#220=EDGE_LOOP('',(#252));
#221=EDGE_LOOP('',(#253));
#222=EDGE_LOOP('',(#254));
#223=EDGE_LOOP('',(#255));
#224=EDGE_LOOP('',(#256));
#225=EDGE_LOOP('',(#257));
#226=EDGE_LOOP('',(#258));
#227=EDGE_LOOP('',(#259));
#228=EDGE_LOOP('',(#260));
#229=EDGE_LOOP('',(#261));
#230=EDGE_LOOP('',(#262));
#231=EDGE_LOOP('',(#263));
#232=EDGE_LOOP('',(#264));
#233=EDGE_LOOP('',(#265));
#234=EDGE_LOOP('',(#266));
#235=EDGE_LOOP('',(#267));
#236=EDGE_LOOP('',(#268));
#237=EDGE_LOOP('',(#269));
#238=EDGE_LOOP('',(#270));
#239=EDGE_LOOP('',(#271));
#240=EDGE_LOOP('',(#272));
#241=ORIENTED_EDGE('',*,*,#289,.F.);
#242=ORIENTED_EDGE('',*,*,#290,.T.);
#243=ORIENTED_EDGE('',*,*,#289,.T.);
#244=ORIENTED_EDGE('',*,*,#290,.F.);
#245=ORIENTED_EDGE('',*,*,#291,.F.);
#246=ORIENTED_EDGE('',*,*,#292,.F.);
#247=ORIENTED_EDGE('',*,*,#291,.T.);
#248=ORIENTED_EDGE('',*,*,#292,.T.);
#249=ORIENTED_EDGE('',*,*,#293,.T.);
#250=ORIENTED_EDGE('',*,*,#294,.T.);
#251=ORIENTED_EDGE('',*,*,#293,.F.);
#252=ORIENTED_EDGE('',*,*,#294,.F.);
#253=ORIENTED_EDGE('',*,*,#295,.F.);
#254=ORIENTED_EDGE('',*,*,#296,.T.);
#255=ORIENTED_EDGE('',*,*,#295,.T.);
#256=ORIENTED_EDGE('',*,*,#296,.F.);
#257=ORIENTED_EDGE('',*,*,#297,.T.);
#258=ORIENTED_EDGE('',*,*,#298,.T.);
#259=ORIENTED_EDGE('',*,*,#297,.F.);
#260=ORIENTED_EDGE('',*,*,#299,.T.);
#261=ORIENTED_EDGE('',*,*,#298,.F.);
#262=ORIENTED_EDGE('',*,*,#300,.T.);
#263=ORIENTED_EDGE('',*,*,#299,.F.);
#264=ORIENTED_EDGE('',*,*,#300,.F.);
#265=ORIENTED_EDGE('',*,*,#301,.T.);
#266=ORIENTED_EDGE('',*,*,#302,.T.);
#267=ORIENTED_EDGE('',*,*,#301,.F.);
#268=ORIENTED_EDGE('',*,*,#303,.T.);
#269=ORIENTED_EDGE('',*,*,#302,.F.);
#270=ORIENTED_EDGE('',*,*,#304,.F.);
#271=ORIENTED_EDGE('',*,*,#303,.F.);
#272=ORIENTED_EDGE('',*,*,#304,.T.);
#273=VERTEX_POINT('',#455);
#274=VERTEX_POINT('',#458);
#275=VERTEX_POINT('',#461);
#276=VERTEX_POINT('',#464);
#277=VERTEX_POINT('',#467);
#278=VERTEX_POINT('',#470);
#279=VERTEX_POINT('',#473);
#280=VERTEX_POINT('',#476);
#281=VERTEX_POINT('',#479);
#282=VERTEX_POINT('',#482);
#283=VERTEX_POINT('',#485);
#284=VERTEX_POINT('',#488);
#285=VERTEX_POINT('',#491);
#286=VERTEX_POINT('',#494);
#287=VERTEX_POINT('',#497);
#288=VERTEX_POINT('',#500);
#289=EDGE_CURVE('',#273,#273,#305,.T.);
#290=EDGE_CURVE('',#274,#274,#306,.T.);
#291=EDGE_CURVE('',#275,#275,#307,.T.);
#292=EDGE_CURVE('',#276,#276,#308,.T.);
#293=EDGE_CURVE('',#277,#277,#309,.T.);
#294=EDGE_CURVE('',#278,#278,#310,.T.);
#295=EDGE_CURVE('',#279,#279,#311,.T.);
#296=EDGE_CURVE('',#280,#280,#312,.T.);
#297=EDGE_CURVE('',#281,#281,#313,.T.);
#298=EDGE_CURVE('',#282,#282,#314,.T.);
#299=EDGE_CURVE('',#283,#283,#315,.T.);
#300=EDGE_CURVE('',#284,#284,#316,.T.);
#301=EDGE_CURVE('',#285,#285,#317,.T.);
#302=EDGE_CURVE('',#286,#286,#318,.T.);
#303=EDGE_CURVE('',#287,#287,#319,.T.);
#304=EDGE_CURVE('',#288,#288,#320,.T.);
#305=CIRCLE('',#351,0.249999999999999);
#306=CIRCLE('',#353,0.249999999999994);
#307=CIRCLE('',#355,0.4);
#308=CIRCLE('',#357,0.4);
#309=CIRCLE('',#359,1.64999999999999);
#310=CIRCLE('',#361,1.64999999999999);
#311=CIRCLE('',#363,2.14999999999999);
#312=CIRCLE('',#365,2.15);
#313=CIRCLE('',#367,2.60000000000001);
#314=CIRCLE('',#369,2.6);
#315=CIRCLE('',#371,2.39999999999997);
#316=CIRCLE('',#373,2.39999999999997);
#317=CIRCLE('',#375,2.85000000000003);
#318=CIRCLE('',#377,2.85000000000002);
#319=CIRCLE('',#379,1.90000000000003);
#320=CIRCLE('',#381,1.90000000000001);
#321=INVISIBILITY((#322));
#322=PRESENTATION_LAYER_ASSIGNMENT('130','Layer 130',(#453));
#323=PRESENTATION_LAYER_ASSIGNMENT('1','Layer 1',(#141));
#324=STYLED_ITEM('',(#326),#453);
#325=STYLED_ITEM('',(#327),#141);
#326=PRESENTATION_STYLE_ASSIGNMENT((#345));
#327=PRESENTATION_STYLE_ASSIGNMENT((#51));
#328=PRESENTATION_STYLE_ASSIGNMENT((#52));
#329=PRESENTATION_STYLE_ASSIGNMENT((#53));
#330=PRESENTATION_STYLE_ASSIGNMENT((#54));
#331=PRESENTATION_STYLE_ASSIGNMENT((#55));
#332=PRESENTATION_STYLE_ASSIGNMENT((#56));
#333=PRESENTATION_STYLE_ASSIGNMENT((#57));
#334=PRESENTATION_STYLE_ASSIGNMENT((#58));
#335=PRESENTATION_STYLE_ASSIGNMENT((#59));
#336=PRESENTATION_STYLE_ASSIGNMENT((#60));
#337=PRESENTATION_STYLE_ASSIGNMENT((#61));
#338=PRESENTATION_STYLE_ASSIGNMENT((#62));
#339=PRESENTATION_STYLE_ASSIGNMENT((#63));
#340=PRESENTATION_STYLE_ASSIGNMENT((#64));
#341=PRESENTATION_STYLE_ASSIGNMENT((#65));
#342=PRESENTATION_STYLE_ASSIGNMENT((#66));
#343=PRESENTATION_STYLE_ASSIGNMENT((#67));
#344=PRESENTATION_STYLE_ASSIGNMENT((#68));
#345=POINT_STYLE('',#346,POSITIVE_LENGTH_MEASURE(3.),#347);
#346=PRE_DEFINED_POINT_MARKER_SYMBOL('plus');
#347=COLOUR_RGB('Medium Maroon',0.6,0.4,0.4);
#348=COLOUR_RGB('RAL7032',0.849988555733577,0.819989318684672,0.629999237048905);
#349=COLOUR_RGB('Strong Gold',0.670572976272221,0.596063172350652,0.321553368429084);
#350=AXIS2_PLACEMENT_3D('',#452,#384,#385);
#351=AXIS2_PLACEMENT_3D('',#454,#386,#387);
#352=AXIS2_PLACEMENT_3D('',#456,#388,#389);
#353=AXIS2_PLACEMENT_3D('',#457,#390,#391);
#354=AXIS2_PLACEMENT_3D('',#459,#392,#393);
#355=AXIS2_PLACEMENT_3D('',#460,#394,#395);
#356=AXIS2_PLACEMENT_3D('',#462,#396,#397);
#357=AXIS2_PLACEMENT_3D('',#463,#398,#399);
#358=AXIS2_PLACEMENT_3D('',#465,#400,#401);
#359=AXIS2_PLACEMENT_3D('',#466,#402,#403);
#360=AXIS2_PLACEMENT_3D('',#468,#404,#405);
#361=AXIS2_PLACEMENT_3D('',#469,#406,#407);
#362=AXIS2_PLACEMENT_3D('',#471,#408,#409);
#363=AXIS2_PLACEMENT_3D('',#472,#410,#411);
#364=AXIS2_PLACEMENT_3D('',#474,#412,#413);
#365=AXIS2_PLACEMENT_3D('',#475,#414,#415);
#366=AXIS2_PLACEMENT_3D('',#477,#416,#417);
#367=AXIS2_PLACEMENT_3D('',#478,#418,#419);
#368=AXIS2_PLACEMENT_3D('',#480,#420,#421);
#369=AXIS2_PLACEMENT_3D('',#481,#422,#423);
#370=AXIS2_PLACEMENT_3D('',#483,#424,#425);
#371=AXIS2_PLACEMENT_3D('',#484,#426,#427);
#372=AXIS2_PLACEMENT_3D('',#486,#428,#429);
#373=AXIS2_PLACEMENT_3D('',#487,#430,#431);
#374=AXIS2_PLACEMENT_3D('',#489,#432,#433);
#375=AXIS2_PLACEMENT_3D('',#490,#434,#435);
#376=AXIS2_PLACEMENT_3D('',#492,#436,#437);
#377=AXIS2_PLACEMENT_3D('',#493,#438,#439);
#378=AXIS2_PLACEMENT_3D('',#495,#440,#441);
#379=AXIS2_PLACEMENT_3D('',#496,#442,#443);
#380=AXIS2_PLACEMENT_3D('',#498,#444,#445);
#381=AXIS2_PLACEMENT_3D('',#499,#446,#447);
#382=AXIS2_PLACEMENT_3D('',#501,#448,#449);
#383=AXIS2_PLACEMENT_3D('',#502,#450,#451);
#384=DIRECTION('',(0.,0.,1.));
#385=DIRECTION('',(1.,0.,0.));
#386=DIRECTION('',(-6.35160271223405E-15,-1.,-1.06831260354642E-14));
#387=DIRECTION('',(1.,0.,0.));
#388=DIRECTION('',(1.83697019872103E-16,1.,0.));
#389=DIRECTION('',(1.,-1.83880688453542E-16,0.));
#390=DIRECTION('',(1.83697019872103E-16,1.,0.));
#391=DIRECTION('',(1.,0.,-2.08166817117222E-14));
#392=DIRECTION('',(5.98420867248985E-15,-1.,-1.06831260354642E-14));
#393=DIRECTION('',(1.,0.,0.));
#394=DIRECTION('',(-1.46867737244753E-15,-1.,6.67695377216523E-15));
#395=DIRECTION('',(1.,0.,-2.60208521396521E-14));
#396=DIRECTION('',(1.83697019872103E-16,1.,0.));
#397=DIRECTION('',(1.,-1.83880688453542E-16,0.));
#398=DIRECTION('',(-4.03863807759839E-15,-1.,-6.67695377216509E-15));
#399=DIRECTION('',(1.,0.,-2.60208521396521E-14));
#400=DIRECTION('',(3.67124403785422E-15,-1.,-6.6769537721653E-15));
#401=DIRECTION('',(1.,0.,-2.60208521396518E-14));
#402=DIRECTION('',(1.83697019872103E-16,1.,0.));
#403=DIRECTION('',(1.,0.,-4.73106402539132E-15));
#404=DIRECTION('',(1.83697019872103E-16,1.,0.));
#405=DIRECTION('',(1.,-1.83880688453542E-16,0.));
#406=DIRECTION('',(8.68512791376216E-16,1.,-1.18613571006961E-15));
#407=DIRECTION('',(1.,0.,-4.73106402539132E-15));
#408=DIRECTION('',(-1.52190141071987E-15,-1.,6.34916806142597E-30));
#409=DIRECTION('',(1.,-2.10269512239612E-15,-4.73106402539128E-15));
#410=DIRECTION('',(1.94918264517506E-15,-1.,-1.05134756119819E-15));
#411=DIRECTION('',(1.,1.61369625672262E-15,0.));
#412=DIRECTION('',(1.83697019872103E-16,1.,0.));
#413=DIRECTION('',(1.,-1.83880688453542E-16,0.));
#414=DIRECTION('',(1.83697019872103E-16,1.,0.));
#415=DIRECTION('',(1.,0.,0.));
#416=DIRECTION('',(1.79323650885592E-15,-1.,-1.05134756119819E-15));
#417=DIRECTION('',(1.,1.61369625672262E-15,0.));
#418=DIRECTION('',(1.83697019872103E-16,1.,0.));
#419=DIRECTION('',(1.,0.,0.));
#420=DIRECTION('',(1.83697019872103E-16,1.,0.));
#421=DIRECTION('',(1.,-1.83880688453542E-16,0.));
#422=DIRECTION('',(1.83697019872103E-16,1.,0.));
#423=DIRECTION('',(1.,0.,0.));
#424=DIRECTION('',(-1.83697019872103E-16,-1.,0.));
#425=DIRECTION('',(1.,0.,2.33520467919954E-15));
#426=DIRECTION('',(-5.19436171412342E-16,1.,-1.50845519650158E-15));
#427=DIRECTION('',(1.,0.,0.));
#428=DIRECTION('',(-1.83697019872103E-16,-1.,0.));
#429=DIRECTION('',(1.,-1.83880688453542E-16,0.));
#430=DIRECTION('',(1.83697019872103E-16,1.,0.));
#431=DIRECTION('',(1.,-3.61400724161839E-16,0.));
#432=DIRECTION('',(-8.8683021115655E-16,-1.,-1.50845519650158E-15));
#433=DIRECTION('',(1.,-7.22801448323676E-16,0.));
#434=DIRECTION('',(-5.62562140413966E-16,1.,-1.36726973636791E-15));
#435=DIRECTION('',(1.,-3.04337451925752E-16,0.));
#436=DIRECTION('',(1.83697019872103E-16,1.,0.));
#437=DIRECTION('',(1.,-1.83880688453542E-16,0.));
#438=DIRECTION('',(1.83697019872103E-16,1.,0.));
#439=DIRECTION('',(1.,-3.04337451925754E-16,-2.13036216348028E-15));
#440=DIRECTION('',(-3.25500244113793E-15,-1.,0.));
#441=DIRECTION('',(1.,-3.34771197118326E-15,0.));
#442=DIRECTION('',(1.83697019872103E-16,1.,0.));
#443=DIRECTION('',(1.,0.,9.13012355777252E-15));
#444=DIRECTION('',(1.83697019872103E-16,1.,-1.29119444804292E-15));
#445=DIRECTION('',(1.,-8.6571688678064E-16,5.13543257238276E-15));
#446=DIRECTION('',(-3.97100753272593E-15,-1.,-2.81134895670108E-15));
#447=DIRECTION('',(1.,-3.65204942310904E-15,-5.47807413466356E-15));
#448=DIRECTION('',(1.41066742956683E-15,-1.,2.31296463463574E-15));
#449=DIRECTION('',(1.,1.36951853366589E-15,0.));
#450=DIRECTION('',(-1.83697019872103E-16,-1.,0.));
#451=DIRECTION('',(1.,-1.83880688453542E-16,0.));
#452=CARTESIAN_POINT('',(0.,0.,0.));
#453=CARTESIAN_POINT('',(-1.38777878078145E-13,7.84999999999982,-6.45000000000016));
#454=CARTESIAN_POINT('',(-1.38777878078145E-13,11.5999999999998,-6.45000000000016));
#455=CARTESIAN_POINT('',(0.24999999999986,11.5999999999998,-6.45000000000016));
#456=CARTESIAN_POINT('',(-0.275000000000136,11.5999999999998,-6.17500000000016));
#457=CARTESIAN_POINT('',(-1.38777878078145E-13,16.6499999999998,-6.45000000000015));
#458=CARTESIAN_POINT('',(0.249999999999855,16.6499999999998,-6.45000000000016));
#459=CARTESIAN_POINT('',(-1.52655665885959E-13,16.6499999999998,-6.45000000000013));
#460=CARTESIAN_POINT('',(-1.38777878078145E-13,16.6499999999998,-6.45000000000015));
#461=CARTESIAN_POINT('',(0.399999999999861,16.6499999999998,-6.45000000000016));
#462=CARTESIAN_POINT('',(-0.440000000000135,16.6499999999998,-6.01000000000016));
#463=CARTESIAN_POINT('',(-1.38777878078145E-13,11.5999999999998,-6.45000000000015));
#464=CARTESIAN_POINT('',(0.399999999999861,11.5999999999998,-6.45000000000016));
#465=CARTESIAN_POINT('',(-1.52655665885959E-13,16.6499999999998,-6.45000000000013));
#466=CARTESIAN_POINT('',(-1.2490009027033E-13,11.5999999999998,-6.45000000000015));
#467=CARTESIAN_POINT('',(1.64999999999986,11.5999999999998,-6.45000000000016));
#468=CARTESIAN_POINT('',(-1.81500000000014,11.5999999999998,-4.63500000000016));
#469=CARTESIAN_POINT('',(-1.2490009027033E-13,17.4499999999998,-6.45000000000015));
#470=CARTESIAN_POINT('',(1.64999999999986,17.4499999999998,-6.45000000000016));
#471=CARTESIAN_POINT('',(-1.52655665885959E-13,17.4499999999998,-6.45000000000015));
#472=CARTESIAN_POINT('',(-1.38777878078145E-13,17.4499999999998,-6.45000000000016));
#473=CARTESIAN_POINT('',(2.14999999999986,17.4499999999998,-6.45000000000016));
#474=CARTESIAN_POINT('',(-2.36500000000013,17.4499999999998,-4.08500000000016));
#475=CARTESIAN_POINT('',(-1.38777878078145E-13,10.8500000000006,-6.45000000000016));
#476=CARTESIAN_POINT('',(2.14999999999986,10.8500000000006,-6.45000000000016));
#477=CARTESIAN_POINT('',(-1.38777878078145E-13,17.4499999999998,-6.45000000000015));
#478=CARTESIAN_POINT('',(-1.38777878078145E-13,10.8500000000005,-6.45000000000016));
#479=CARTESIAN_POINT('',(2.59999999999987,10.8500000000005,-6.45000000000016));
#480=CARTESIAN_POINT('',(-2.8600000000068,10.8500000000005,-3.58999999999349));
#481=CARTESIAN_POINT('',(-1.38777878078145E-13,7.84999999999982,-6.45000000000016));
#482=CARTESIAN_POINT('',(2.59999999999986,7.84999999999982,-6.45000000000016));
#483=CARTESIAN_POINT('',(-1.38777878078145E-13,10.8500000000005,-6.45000000000016));
#484=CARTESIAN_POINT('',(-1.38777878078145E-13,7.84999999999982,-6.45000000000016));
#485=CARTESIAN_POINT('',(2.39999999999983,7.84999999999982,-6.45000000000016));
#486=CARTESIAN_POINT('',(-2.86000000000014,7.84999999999982,-9.31000000000016));
#487=CARTESIAN_POINT('',(-1.38777878078145E-13,5.54999999999983,-6.45000000000016));
#488=CARTESIAN_POINT('',(2.39999999999983,5.54999999999983,-6.45000000000016));
#489=CARTESIAN_POINT('',(-1.38777878078145E-13,7.84999999999982,-6.45000000000015));
#490=CARTESIAN_POINT('',(-1.38777878078145E-13,5.54999999999983,-6.45000000000016));
#491=CARTESIAN_POINT('',(2.84999999999989,5.54999999999983,-6.45000000000016));
#492=CARTESIAN_POINT('',(-3.13500000000018,5.54999999999983,-3.31500000000012));
#493=CARTESIAN_POINT('',(-1.38777878078145E-13,-4.59999998806409,-6.45000000000015));
#494=CARTESIAN_POINT('',(2.84999999999988,-4.59999998806409,-6.45000000000016));
#495=CARTESIAN_POINT('',(-1.38777878078145E-13,5.54999999999984,-6.45000000000016));
#496=CARTESIAN_POINT('',(-1.66533453693773E-13,-5.55000000000019,-6.45000000000017));
#497=CARTESIAN_POINT('',(1.89999999999986,-5.55000000000019,-6.45000000000016));
#498=CARTESIAN_POINT('',(-1.38777878078145E-13,-5.55000000000019,-6.45000000000017));
#499=CARTESIAN_POINT('',(-1.52655665885959E-13,-11.5500000000002,-6.45000000000015));
#500=CARTESIAN_POINT('',(1.89999999999986,-11.5500000000002,-6.45000000000016));
#501=CARTESIAN_POINT('',(-1.52655665885959E-13,-5.55000000000019,-6.45000000000016));
#502=CARTESIAN_POINT('',(-2.09000000000016,-11.5500000000002,-8.54000000000017));
#503=MECHANICAL_DESIGN_GEOMETRIC_PRESENTATION_REPRESENTATION('',(#324,#325,
#34,#35,#36,#37,#38,#39,#40,#41,#42,#43,#44,#45,#46,#47,#48,#49,#50),#504);
#504=(
GEOMETRIC_REPRESENTATION_CONTEXT(3)
GLOBAL_UNCERTAINTY_ASSIGNED_CONTEXT((#505))
GLOBAL_UNIT_ASSIGNED_CONTEXT((#511,#507,#506))
REPRESENTATION_CONTEXT('100095316ugm000_b','TOP_LEVEL_ASSEMBLY_PART')
);
#505=UNCERTAINTY_MEASURE_WITH_UNIT(LENGTH_MEASURE(2.E-5),#511,
'DISTANCE_ACCURACY_VALUE','Maximum Tolerance applied to model');
#506=(
NAMED_UNIT(*)
SI_UNIT($,.STERADIAN.)
SOLID_ANGLE_UNIT()
);
#507=(
CONVERSION_BASED_UNIT('DEGREE',#509)
NAMED_UNIT(#508)
PLANE_ANGLE_UNIT()
);
#508=DIMENSIONAL_EXPONENTS(0.,0.,0.,0.,0.,0.,0.);
#509=PLANE_ANGLE_MEASURE_WITH_UNIT(PLANE_ANGLE_MEASURE(0.0174532925),#510);
#510=(
NAMED_UNIT(*)
PLANE_ANGLE_UNIT()
SI_UNIT($,.RADIAN.)
);
#511=(
LENGTH_UNIT()
NAMED_UNIT(*)
SI_UNIT(.MILLI.,.METRE.)
);
ENDSEC;
END-ISO-10303-21;
