ISO-10303-21;
HEADER;
/* Generated by software containing ST-Developer
 * from STEP Tools, Inc. (www.steptools.com) 
 */
/* OPTION: using custom schema-name function */

FILE_DESCRIPTION(
/* description */ (''),
/* implementation_level */ '2;1');

FILE_NAME(
/* name */ '100124057ugm000_b.stp',
/* time_stamp */ '2016-09-28T11:34:26+02:00',
/* author */ (''),
/* organization */ (''),
/* preprocessor_version */ 'ST-DEVELOPER v16',
/* originating_system */ 'SIEMENS PLM Software NX 10.0',
/* authorisation */ '');

FILE_SCHEMA (('AUTOMOTIVE_DESIGN { 1 0 10303 214 3 1 1 1 }'));
ENDSEC;

DATA;
#10=GEOMETRICALLY_BOUNDED_WIREFRAME_SHAPE_REPRESENTATION(
'100124057ugm000_b-None',(#33),#574);
#11=PROPERTY_DEFINITION_REPRESENTATION(#15,#13);
#12=PROPERTY_DEFINITION_REPRESENTATION(#16,#14);
#13=REPRESENTATION('',(#17),#574);
#14=REPRESENTATION('',(#18),#574);
#15=PROPERTY_DEFINITION('pmi validation property','',#23);
#16=PROPERTY_DEFINITION('pmi validation property','',#23);
#17=VALUE_REPRESENTATION_ITEM('number of annotations',COUNT_MEASURE(0.));
#18=VALUE_REPRESENTATION_ITEM('number of views',COUNT_MEASURE(0.));
#19=SHAPE_REPRESENTATION_RELATIONSHIP('None',
'relationship between 100124057ugm000_b-None and 100124057ugm000_b-Non
e',#32,#21);
#20=SHAPE_REPRESENTATION_RELATIONSHIP('None',
'relationship between 100124057ugm000_b-None and 100124057ugm000_b-Non
e',#32,#10);
#21=ADVANCED_BREP_SHAPE_REPRESENTATION('100124057ugm000_b-None',(#39),#574);
#22=SHAPE_DEFINITION_REPRESENTATION(#23,#32);
#23=PRODUCT_DEFINITION_SHAPE('','',#24);
#24=PRODUCT_DEFINITION(' ','',#26,#25);
#25=PRODUCT_DEFINITION_CONTEXT('part definition',#31,'design');
#26=PRODUCT_DEFINITION_FORMATION_WITH_SPECIFIED_SOURCE(' ',' ',#28,
 .NOT_KNOWN.);
#27=PRODUCT_RELATED_PRODUCT_CATEGORY('part','',(#28));
#28=PRODUCT('100124057ugm000_b','100124057ugm000_b',' ',(#29));
#29=PRODUCT_CONTEXT(' ',#31,'mechanical');
#30=APPLICATION_PROTOCOL_DEFINITION('international standard',
'automotive_design',2010,#31);
#31=APPLICATION_CONTEXT(
'core data for automotive mechanical design processes');
#32=SHAPE_REPRESENTATION('100124057ugm000_b-None',(#377),#574);
#33=GEOMETRIC_CURVE_SET('None',(#480,#481));
#34=SURFACE_STYLE_USAGE(.BOTH.,#35);
#35=SURFACE_SIDE_STYLE('',(#36));
#36=SURFACE_STYLE_FILL_AREA(#37);
#37=FILL_AREA_STYLE('',(#38));
#38=FILL_AREA_STYLE_COLOUR('',#363);
#39=MANIFOLD_SOLID_BREP('',#40);
#40=CLOSED_SHELL('',(#155,#156,#157,#158,#159,#160,#161,#162,#163,#164,
#165,#166,#167,#168,#169,#170,#171));
#41=PLANE('',#381);
#42=PLANE('',#382);
#43=PLANE('',#383);
#44=PLANE('',#384);
#45=PLANE('',#385);
#46=PLANE('',#386);
#47=PLANE('',#387);
#48=PLANE('',#388);
#49=PLANE('',#389);
#50=PLANE('',#390);
#51=PLANE('',#391);
#52=PLANE('',#392);
#53=PLANE('',#393);
#54=PLANE('',#394);
#55=PLANE('',#395);
#56=PLANE('',#396);
#57=FACE_OUTER_BOUND('',#181,.T.);
#58=FACE_OUTER_BOUND('',#182,.T.);
#59=FACE_OUTER_BOUND('',#183,.T.);
#60=FACE_OUTER_BOUND('',#184,.T.);
#61=FACE_OUTER_BOUND('',#185,.T.);
#62=FACE_OUTER_BOUND('',#186,.T.);
#63=FACE_OUTER_BOUND('',#187,.T.);
#64=FACE_OUTER_BOUND('',#188,.T.);
#65=FACE_OUTER_BOUND('',#191,.T.);
#66=FACE_OUTER_BOUND('',#192,.T.);
#67=FACE_OUTER_BOUND('',#193,.T.);
#68=FACE_OUTER_BOUND('',#194,.T.);
#69=FACE_OUTER_BOUND('',#195,.T.);
#70=FACE_OUTER_BOUND('',#198,.T.);
#71=LINE('',#487,#113);
#72=LINE('',#490,#114);
#73=LINE('',#492,#115);
#74=LINE('',#494,#116);
#75=LINE('',#496,#117);
#76=LINE('',#498,#118);
#77=LINE('',#500,#119);
#78=LINE('',#502,#120);
#79=LINE('',#505,#121);
#80=LINE('',#507,#122);
#81=LINE('',#509,#123);
#82=LINE('',#511,#124);
#83=LINE('',#514,#125);
#84=LINE('',#515,#126);
#85=LINE('',#517,#127);
#86=LINE('',#519,#128);
#87=LINE('',#521,#129);
#88=LINE('',#523,#130);
#89=LINE('',#525,#131);
#90=LINE('',#527,#132);
#91=LINE('',#529,#133);
#92=LINE('',#531,#134);
#93=LINE('',#533,#135);
#94=LINE('',#535,#136);
#95=LINE('',#536,#137);
#96=LINE('',#538,#138);
#97=LINE('',#540,#139);
#98=LINE('',#542,#140);
#99=LINE('',#544,#141);
#100=LINE('',#546,#142);
#101=LINE('',#548,#143);
#102=LINE('',#551,#144);
#103=LINE('',#552,#145);
#104=LINE('',#554,#146);
#105=LINE('',#556,#147);
#106=LINE('',#558,#148);
#107=LINE('',#560,#149);
#108=LINE('',#562,#150);
#109=LINE('',#564,#151);
#110=LINE('',#566,#152);
#111=LINE('',#568,#153);
#112=LINE('',#570,#154);
#113=VECTOR('',#405,1.);
#114=VECTOR('',#406,1.);
#115=VECTOR('',#407,1.);
#116=VECTOR('',#408,1.);
#117=VECTOR('',#411,1.);
#118=VECTOR('',#412,1.);
#119=VECTOR('',#413,1.);
#120=VECTOR('',#416,1.);
#121=VECTOR('',#417,1.);
#122=VECTOR('',#418,1.);
#123=VECTOR('',#419,1.);
#124=VECTOR('',#422,1.);
#125=VECTOR('',#423,1.);
#126=VECTOR('',#424,1.);
#127=VECTOR('',#425,1.);
#128=VECTOR('',#426,1.);
#129=VECTOR('',#427,1.);
#130=VECTOR('',#428,1.);
#131=VECTOR('',#431,1.);
#132=VECTOR('',#432,1.);
#133=VECTOR('',#435,1.);
#134=VECTOR('',#436,1.);
#135=VECTOR('',#439,1.);
#136=VECTOR('',#442,1.);
#137=VECTOR('',#443,1.);
#138=VECTOR('',#446,1.);
#139=VECTOR('',#447,1.);
#140=VECTOR('',#448,1.);
#141=VECTOR('',#449,1.);
#142=VECTOR('',#450,1.);
#143=VECTOR('',#453,1.);
#144=VECTOR('',#454,1.);
#145=VECTOR('',#455,1.);
#146=VECTOR('',#458,1.);
#147=VECTOR('',#459,1.);
#148=VECTOR('',#462,1.);
#149=VECTOR('',#463,1.);
#150=VECTOR('',#466,1.);
#151=VECTOR('',#467,1.);
#152=VECTOR('',#468,1.);
#153=VECTOR('',#471,1.);
#154=VECTOR('',#474,1.);
#155=ADVANCED_FACE('',(#173,#174),#172,.F.);
#156=ADVANCED_FACE('',(#57),#41,.T.);
#157=ADVANCED_FACE('',(#58),#42,.T.);
#158=ADVANCED_FACE('',(#59),#43,.T.);
#159=ADVANCED_FACE('',(#60),#44,.T.);
#160=ADVANCED_FACE('',(#61),#45,.F.);
#161=ADVANCED_FACE('',(#62),#46,.T.);
#162=ADVANCED_FACE('',(#63),#47,.F.);
#163=ADVANCED_FACE('',(#64),#48,.T.);
#164=ADVANCED_FACE('',(#175,#176),#49,.T.);
#165=ADVANCED_FACE('',(#65),#50,.T.);
#166=ADVANCED_FACE('',(#66),#51,.T.);
#167=ADVANCED_FACE('',(#67),#52,.F.);
#168=ADVANCED_FACE('',(#68),#53,.T.);
#169=ADVANCED_FACE('',(#69),#54,.T.);
#170=ADVANCED_FACE('',(#177,#178),#55,.T.);
#171=ADVANCED_FACE('',(#70),#56,.T.);
#172=CYLINDRICAL_SURFACE('',#380,1.29);
#173=FACE_BOUND('',#179,.T.);
#174=FACE_BOUND('',#180,.T.);
#175=FACE_BOUND('',#189,.T.);
#176=FACE_BOUND('',#190,.T.);
#177=FACE_BOUND('',#196,.T.);
#178=FACE_BOUND('',#197,.T.);
#179=EDGE_LOOP('',(#199));
#180=EDGE_LOOP('',(#200));
#181=EDGE_LOOP('',(#201,#202,#203,#204));
#182=EDGE_LOOP('',(#205,#206,#207,#208));
#183=EDGE_LOOP('',(#209,#210,#211,#212));
#184=EDGE_LOOP('',(#213,#214,#215,#216,#217,#218,#219,#220));
#185=EDGE_LOOP('',(#221,#222,#223,#224));
#186=EDGE_LOOP('',(#225,#226,#227,#228));
#187=EDGE_LOOP('',(#229,#230,#231,#232));
#188=EDGE_LOOP('',(#233,#234,#235,#236,#237,#238,#239,#240));
#189=EDGE_LOOP('',(#241));
#190=EDGE_LOOP('',(#242,#243,#244,#245,#246,#247,#248,#249,#250));
#191=EDGE_LOOP('',(#251,#252,#253,#254));
#192=EDGE_LOOP('',(#255,#256,#257,#258));
#193=EDGE_LOOP('',(#259,#260,#261,#262));
#194=EDGE_LOOP('',(#263,#264,#265,#266,#267,#268));
#195=EDGE_LOOP('',(#269,#270,#271,#272,#273,#274));
#196=EDGE_LOOP('',(#275));
#197=EDGE_LOOP('',(#276,#277,#278,#279,#280,#281,#282));
#198=EDGE_LOOP('',(#283,#284,#285,#286));
#199=ORIENTED_EDGE('',*,*,#317,.T.);
#200=ORIENTED_EDGE('',*,*,#318,.T.);
#201=ORIENTED_EDGE('',*,*,#319,.T.);
#202=ORIENTED_EDGE('',*,*,#320,.T.);
#203=ORIENTED_EDGE('',*,*,#321,.T.);
#204=ORIENTED_EDGE('',*,*,#322,.F.);
#205=ORIENTED_EDGE('',*,*,#323,.T.);
#206=ORIENTED_EDGE('',*,*,#324,.T.);
#207=ORIENTED_EDGE('',*,*,#325,.T.);
#208=ORIENTED_EDGE('',*,*,#320,.F.);
#209=ORIENTED_EDGE('',*,*,#326,.T.);
#210=ORIENTED_EDGE('',*,*,#327,.T.);
#211=ORIENTED_EDGE('',*,*,#328,.T.);
#212=ORIENTED_EDGE('',*,*,#329,.T.);
#213=ORIENTED_EDGE('',*,*,#330,.T.);
#214=ORIENTED_EDGE('',*,*,#331,.T.);
#215=ORIENTED_EDGE('',*,*,#329,.F.);
#216=ORIENTED_EDGE('',*,*,#332,.T.);
#217=ORIENTED_EDGE('',*,*,#333,.T.);
#218=ORIENTED_EDGE('',*,*,#334,.T.);
#219=ORIENTED_EDGE('',*,*,#335,.T.);
#220=ORIENTED_EDGE('',*,*,#336,.T.);
#221=ORIENTED_EDGE('',*,*,#337,.F.);
#222=ORIENTED_EDGE('',*,*,#332,.F.);
#223=ORIENTED_EDGE('',*,*,#328,.F.);
#224=ORIENTED_EDGE('',*,*,#338,.F.);
#225=ORIENTED_EDGE('',*,*,#339,.T.);
#226=ORIENTED_EDGE('',*,*,#340,.F.);
#227=ORIENTED_EDGE('',*,*,#338,.T.);
#228=ORIENTED_EDGE('',*,*,#327,.F.);
#229=ORIENTED_EDGE('',*,*,#326,.F.);
#230=ORIENTED_EDGE('',*,*,#331,.F.);
#231=ORIENTED_EDGE('',*,*,#341,.F.);
#232=ORIENTED_EDGE('',*,*,#339,.F.);
#233=ORIENTED_EDGE('',*,*,#341,.T.);
#234=ORIENTED_EDGE('',*,*,#330,.F.);
#235=ORIENTED_EDGE('',*,*,#342,.T.);
#236=ORIENTED_EDGE('',*,*,#324,.F.);
#237=ORIENTED_EDGE('',*,*,#343,.T.);
#238=ORIENTED_EDGE('',*,*,#333,.F.);
#239=ORIENTED_EDGE('',*,*,#337,.T.);
#240=ORIENTED_EDGE('',*,*,#340,.T.);
#241=ORIENTED_EDGE('',*,*,#317,.F.);
#242=ORIENTED_EDGE('',*,*,#342,.F.);
#243=ORIENTED_EDGE('',*,*,#336,.F.);
#244=ORIENTED_EDGE('',*,*,#344,.F.);
#245=ORIENTED_EDGE('',*,*,#345,.F.);
#246=ORIENTED_EDGE('',*,*,#346,.F.);
#247=ORIENTED_EDGE('',*,*,#347,.F.);
#248=ORIENTED_EDGE('',*,*,#348,.F.);
#249=ORIENTED_EDGE('',*,*,#321,.F.);
#250=ORIENTED_EDGE('',*,*,#325,.F.);
#251=ORIENTED_EDGE('',*,*,#349,.T.);
#252=ORIENTED_EDGE('',*,*,#350,.T.);
#253=ORIENTED_EDGE('',*,*,#346,.T.);
#254=ORIENTED_EDGE('',*,*,#351,.F.);
#255=ORIENTED_EDGE('',*,*,#352,.T.);
#256=ORIENTED_EDGE('',*,*,#351,.T.);
#257=ORIENTED_EDGE('',*,*,#345,.T.);
#258=ORIENTED_EDGE('',*,*,#353,.F.);
#259=ORIENTED_EDGE('',*,*,#354,.F.);
#260=ORIENTED_EDGE('',*,*,#355,.F.);
#261=ORIENTED_EDGE('',*,*,#349,.F.);
#262=ORIENTED_EDGE('',*,*,#352,.F.);
#263=ORIENTED_EDGE('',*,*,#355,.T.);
#264=ORIENTED_EDGE('',*,*,#356,.F.);
#265=ORIENTED_EDGE('',*,*,#357,.T.);
#266=ORIENTED_EDGE('',*,*,#358,.T.);
#267=ORIENTED_EDGE('',*,*,#347,.T.);
#268=ORIENTED_EDGE('',*,*,#350,.F.);
#269=ORIENTED_EDGE('',*,*,#359,.T.);
#270=ORIENTED_EDGE('',*,*,#356,.T.);
#271=ORIENTED_EDGE('',*,*,#354,.T.);
#272=ORIENTED_EDGE('',*,*,#353,.T.);
#273=ORIENTED_EDGE('',*,*,#344,.T.);
#274=ORIENTED_EDGE('',*,*,#335,.F.);
#275=ORIENTED_EDGE('',*,*,#318,.F.);
#276=ORIENTED_EDGE('',*,*,#359,.F.);
#277=ORIENTED_EDGE('',*,*,#334,.F.);
#278=ORIENTED_EDGE('',*,*,#343,.F.);
#279=ORIENTED_EDGE('',*,*,#323,.F.);
#280=ORIENTED_EDGE('',*,*,#319,.F.);
#281=ORIENTED_EDGE('',*,*,#360,.F.);
#282=ORIENTED_EDGE('',*,*,#357,.F.);
#283=ORIENTED_EDGE('',*,*,#360,.T.);
#284=ORIENTED_EDGE('',*,*,#322,.T.);
#285=ORIENTED_EDGE('',*,*,#348,.T.);
#286=ORIENTED_EDGE('',*,*,#358,.F.);
#287=VERTEX_POINT('',#483);
#288=VERTEX_POINT('',#485);
#289=VERTEX_POINT('',#488);
#290=VERTEX_POINT('',#489);
#291=VERTEX_POINT('',#491);
#292=VERTEX_POINT('',#493);
#293=VERTEX_POINT('',#497);
#294=VERTEX_POINT('',#499);
#295=VERTEX_POINT('',#503);
#296=VERTEX_POINT('',#504);
#297=VERTEX_POINT('',#506);
#298=VERTEX_POINT('',#508);
#299=VERTEX_POINT('',#512);
#300=VERTEX_POINT('',#513);
#301=VERTEX_POINT('',#516);
#302=VERTEX_POINT('',#518);
#303=VERTEX_POINT('',#520);
#304=VERTEX_POINT('',#522);
#305=VERTEX_POINT('',#526);
#306=VERTEX_POINT('',#530);
#307=VERTEX_POINT('',#539);
#308=VERTEX_POINT('',#541);
#309=VERTEX_POINT('',#543);
#310=VERTEX_POINT('',#545);
#311=VERTEX_POINT('',#549);
#312=VERTEX_POINT('',#550);
#313=VERTEX_POINT('',#555);
#314=VERTEX_POINT('',#559);
#315=VERTEX_POINT('',#563);
#316=VERTEX_POINT('',#565);
#317=EDGE_CURVE('',#287,#287,#361,.T.);
#318=EDGE_CURVE('',#288,#288,#362,.T.);
#319=EDGE_CURVE('',#289,#290,#71,.T.);
#320=EDGE_CURVE('',#290,#291,#72,.T.);
#321=EDGE_CURVE('',#291,#292,#73,.T.);
#322=EDGE_CURVE('',#289,#292,#74,.T.);
#323=EDGE_CURVE('',#290,#293,#75,.T.);
#324=EDGE_CURVE('',#293,#294,#76,.T.);
#325=EDGE_CURVE('',#294,#291,#77,.T.);
#326=EDGE_CURVE('',#295,#296,#78,.T.);
#327=EDGE_CURVE('',#296,#297,#79,.T.);
#328=EDGE_CURVE('',#297,#298,#80,.T.);
#329=EDGE_CURVE('',#298,#295,#81,.T.);
#330=EDGE_CURVE('',#299,#300,#82,.T.);
#331=EDGE_CURVE('',#300,#295,#83,.T.);
#332=EDGE_CURVE('',#298,#301,#84,.T.);
#333=EDGE_CURVE('',#301,#302,#85,.T.);
#334=EDGE_CURVE('',#302,#303,#86,.T.);
#335=EDGE_CURVE('',#303,#304,#87,.T.);
#336=EDGE_CURVE('',#304,#299,#88,.T.);
#337=EDGE_CURVE('',#301,#305,#89,.T.);
#338=EDGE_CURVE('',#305,#297,#90,.T.);
#339=EDGE_CURVE('',#296,#306,#91,.T.);
#340=EDGE_CURVE('',#305,#306,#92,.T.);
#341=EDGE_CURVE('',#306,#300,#93,.T.);
#342=EDGE_CURVE('',#299,#294,#94,.T.);
#343=EDGE_CURVE('',#293,#302,#95,.T.);
#344=EDGE_CURVE('',#307,#304,#96,.T.);
#345=EDGE_CURVE('',#308,#307,#97,.T.);
#346=EDGE_CURVE('',#309,#308,#98,.T.);
#347=EDGE_CURVE('',#310,#309,#99,.T.);
#348=EDGE_CURVE('',#292,#310,#100,.T.);
#349=EDGE_CURVE('',#311,#312,#101,.T.);
#350=EDGE_CURVE('',#312,#309,#102,.T.);
#351=EDGE_CURVE('',#311,#308,#103,.T.);
#352=EDGE_CURVE('',#313,#311,#104,.T.);
#353=EDGE_CURVE('',#313,#307,#105,.T.);
#354=EDGE_CURVE('',#314,#313,#106,.T.);
#355=EDGE_CURVE('',#312,#314,#107,.T.);
#356=EDGE_CURVE('',#315,#314,#108,.T.);
#357=EDGE_CURVE('',#315,#316,#109,.T.);
#358=EDGE_CURVE('',#316,#310,#110,.T.);
#359=EDGE_CURVE('',#303,#315,#111,.T.);
#360=EDGE_CURVE('',#316,#289,#112,.T.);
#361=CIRCLE('',#378,1.29);
#362=CIRCLE('',#379,1.29);
#363=COLOUR_RGB('ORANGE',1.,0.329991607537957,0.);
#364=PRESENTATION_LAYER_ASSIGNMENT('130','Layer 130',(#480,#481));
#365=PRESENTATION_LAYER_ASSIGNMENT('1','Layer 1',(#39));
#366=STYLED_ITEM('',(#369),#480);
#367=STYLED_ITEM('',(#370),#481);
#368=STYLED_ITEM('',(#371),#39);
#369=PRESENTATION_STYLE_ASSIGNMENT((#372));
#370=PRESENTATION_STYLE_ASSIGNMENT((#373));
#371=PRESENTATION_STYLE_ASSIGNMENT((#34));
#372=POINT_STYLE('',#374,POSITIVE_LENGTH_MEASURE(3.),#376);
#373=POINT_STYLE('',#375,POSITIVE_LENGTH_MEASURE(3.),#363);
#374=PRE_DEFINED_POINT_MARKER_SYMBOL('plus');
#375=PRE_DEFINED_POINT_MARKER_SYMBOL('plus');
#376=DRAUGHTING_PRE_DEFINED_COLOUR('yellow');
#377=AXIS2_PLACEMENT_3D('',#479,#397,#398);
#378=AXIS2_PLACEMENT_3D('',#482,#399,#400);
#379=AXIS2_PLACEMENT_3D('',#484,#401,#402);
#380=AXIS2_PLACEMENT_3D('',#486,#403,#404);
#381=AXIS2_PLACEMENT_3D('',#495,#409,#410);
#382=AXIS2_PLACEMENT_3D('',#501,#414,#415);
#383=AXIS2_PLACEMENT_3D('',#510,#420,#421);
#384=AXIS2_PLACEMENT_3D('',#524,#429,#430);
#385=AXIS2_PLACEMENT_3D('',#528,#433,#434);
#386=AXIS2_PLACEMENT_3D('',#532,#437,#438);
#387=AXIS2_PLACEMENT_3D('',#534,#440,#441);
#388=AXIS2_PLACEMENT_3D('',#537,#444,#445);
#389=AXIS2_PLACEMENT_3D('',#547,#451,#452);
#390=AXIS2_PLACEMENT_3D('',#553,#456,#457);
#391=AXIS2_PLACEMENT_3D('',#557,#460,#461);
#392=AXIS2_PLACEMENT_3D('',#561,#464,#465);
#393=AXIS2_PLACEMENT_3D('',#567,#469,#470);
#394=AXIS2_PLACEMENT_3D('',#569,#472,#473);
#395=AXIS2_PLACEMENT_3D('',#571,#475,#476);
#396=AXIS2_PLACEMENT_3D('',#572,#477,#478);
#397=DIRECTION('',(0.,0.,1.));
#398=DIRECTION('',(1.,0.,0.));
#399=DIRECTION('',(-5.0568028450196E-16,0.,1.));
#400=DIRECTION('',(1.,0.,6.72373440301088E-16));
#401=DIRECTION('',(0.,0.,-1.));
#402=DIRECTION('',(1.,0.,0.));
#403=DIRECTION('',(0.,0.,-1.));
#404=DIRECTION('',(1.,0.,0.));
#405=DIRECTION('',(1.,2.5632139641222E-15,0.));
#406=DIRECTION('',(0.,0.,1.));
#407=DIRECTION('',(-1.,-2.5632139641222E-15,0.));
#408=DIRECTION('',(0.,0.,1.));
#409=DIRECTION('',(2.5632139641222E-15,-1.,0.));
#410=DIRECTION('',(1.,2.56392129749372E-15,0.));
#411=DIRECTION('',(0.,1.,0.));
#412=DIRECTION('',(0.,0.,1.));
#413=DIRECTION('',(0.,-1.,0.));
#414=DIRECTION('',(1.,0.,0.));
#415=DIRECTION('',(0.,1.,0.));
#416=DIRECTION('',(-1.,3.46944695195361E-15,0.));
#417=DIRECTION('',(0.,0.,-1.));
#418=DIRECTION('',(1.,-3.46944695195361E-15,0.));
#419=DIRECTION('',(0.,0.,1.));
#420=DIRECTION('',(1.73472347597682E-15,-1.,4.06657505150769E-31));
#421=DIRECTION('',(1.,1.73472347597681E-15,0.));
#422=DIRECTION('',(0.,1.13589693206961E-12,-1.));
#423=DIRECTION('',(-3.61400724159243E-15,-1.,-3.61400724159243E-15));
#424=DIRECTION('',(3.61400724158655E-15,1.,4.33680868990386E-15));
#425=DIRECTION('',(0.,1.13589693205643E-12,-1.));
#426=DIRECTION('',(3.85494105777955E-15,1.,0.));
#427=DIRECTION('',(0.,0.,1.));
#428=DIRECTION('',(-3.85494105776024E-15,-1.,0.));
#429=DIRECTION('',(1.,-3.70074341541337E-15,0.));
#430=DIRECTION('',(3.70016517425853E-15,1.,0.));
#431=DIRECTION('',(-1.,3.90312782094782E-15,0.));
#432=DIRECTION('',(-3.61400724158655E-15,-1.,-4.33680868990385E-15));
#433=DIRECTION('',(-1.6927118651692E-29,-4.33680868990385E-15,1.));
#434=DIRECTION('',(-3.61429636219768E-15,-1.,-4.33680868994202E-15));
#435=DIRECTION('',(3.61400724159243E-15,1.,3.61400724159243E-15));
#436=DIRECTION('',(0.,0.,1.));
#437=DIRECTION('',(-1.,1.08420217248376E-15,0.));
#438=DIRECTION('',(-1.0842021724855E-15,-1.,0.));
#439=DIRECTION('',(1.,-3.90312782094782E-15,0.));
#440=DIRECTION('',(1.25386064086812E-29,3.61400724159243E-15,-1.));
#441=DIRECTION('',(3.61429636219768E-15,1.,3.61429636219768E-15));
#442=DIRECTION('',(-1.,-3.72152395705649E-12,-4.33680868994202E-15));
#443=DIRECTION('',(1.,5.8340918901445E-12,0.));
#444=DIRECTION('',(4.97176850342824E-12,-1.,-7.52418678401321E-13));
#445=DIRECTION('',(1.,4.97176865649207E-12,0.));
#446=DIRECTION('',(1.,0.,0.));
#447=DIRECTION('',(-7.70988211545248E-16,-1.,0.));
#448=DIRECTION('',(1.,0.,0.));
#449=DIRECTION('',(-8.49762578742784E-17,1.,0.));
#450=DIRECTION('',(-0.707106781186547,0.707106781186548,0.));
#451=DIRECTION('',(0.,0.,1.));
#452=DIRECTION('',(1.,0.,0.));
#453=DIRECTION('',(-1.,0.,0.));
#454=DIRECTION('',(0.,0.,1.));
#455=DIRECTION('',(0.,0.,1.));
#456=DIRECTION('',(0.,1.,0.));
#457=DIRECTION('',(-1.,0.,0.));
#458=DIRECTION('',(0.,0.99778515785661,0.0665190105237643));
#459=DIRECTION('',(0.,0.,1.));
#460=DIRECTION('',(1.,-7.70988211545248E-16,0.));
#461=DIRECTION('',(7.71084585071691E-16,1.,0.));
#462=DIRECTION('',(1.,0.,0.));
#463=DIRECTION('',(0.,-0.99778515785661,-0.0665190105237643));
#464=DIRECTION('',(0.,-0.0665190105237643,0.99778515785661));
#465=DIRECTION('',(0.,0.99778515785661,0.0665190105237643));
#466=DIRECTION('',(0.,8.67361737988404E-16,1.));
#467=DIRECTION('',(8.49762578742784E-17,-1.,0.));
#468=DIRECTION('',(0.,0.,1.));
#469=DIRECTION('',(-1.,-8.49762578742784E-17,0.));
#470=DIRECTION('',(8.49762578742784E-17,-1.,0.));
#471=DIRECTION('',(-1.,-8.98820453873993E-17,0.));
#472=DIRECTION('',(0.,1.,0.));
#473=DIRECTION('',(-1.,0.,0.));
#474=DIRECTION('',(0.707106781186547,-0.707106781186548,0.));
#475=DIRECTION('',(0.,0.,-1.));
#476=DIRECTION('',(1.,0.,0.));
#477=DIRECTION('',(-0.707106781186548,-0.707106781186547,0.));
#478=DIRECTION('',(0.707106781186547,-0.707106781186548,0.));
#479=CARTESIAN_POINT('',(0.,0.,0.));
#480=CARTESIAN_POINT('CS1',(0.,0.,0.));
#481=CARTESIAN_POINT('CS2',(0.,0.,0.));
#482=CARTESIAN_POINT('',(3.95,-11.,5.95));
#483=CARTESIAN_POINT('',(5.24,-11.,5.95));
#484=CARTESIAN_POINT('',(3.95,-11.,0.));
#485=CARTESIAN_POINT('',(5.24,-11.,0.));
#486=CARTESIAN_POINT('',(3.95,-11.,5.95));
#487=CARTESIAN_POINT('',(3.74289321881346,-13.95,0.));
#488=CARTESIAN_POINT('',(3.74289321881346,-13.95,0.));
#489=CARTESIAN_POINT('',(6.45,-13.95,0.));
#490=CARTESIAN_POINT('',(6.45,-13.95,0.));
#491=CARTESIAN_POINT('',(6.45,-13.95,5.95));
#492=CARTESIAN_POINT('',(6.45,-13.95,5.95));
#493=CARTESIAN_POINT('',(3.74289321881346,-13.95,5.95));
#494=CARTESIAN_POINT('',(3.74289321881346,-13.95,0.));
#495=CARTESIAN_POINT('',(3.74289321881346,-13.95,0.));
#496=CARTESIAN_POINT('',(6.45,-13.95,0.));
#497=CARTESIAN_POINT('',(6.45,-5.85,0.));
#498=CARTESIAN_POINT('',(6.45,-5.85,0.));
#499=CARTESIAN_POINT('',(6.45,-5.85,5.95));
#500=CARTESIAN_POINT('',(6.45,-5.85,5.95));
#501=CARTESIAN_POINT('',(6.45,-13.95,0.));
#502=CARTESIAN_POINT('',(9.64999999999999,-8.25000000000388,4.7));
#503=CARTESIAN_POINT('',(9.64999999999999,-8.25000000000388,4.7));
#504=CARTESIAN_POINT('',(7.64999999999999,-8.25000000000387,4.7));
#505=CARTESIAN_POINT('',(7.65,-8.25000000000387,4.7));
#506=CARTESIAN_POINT('',(7.64999999999999,-8.25000000000386,1.25000000001451));
#507=CARTESIAN_POINT('',(7.64999999999999,-8.25000000000386,1.25000000001451));
#508=CARTESIAN_POINT('',(9.64999999999999,-8.25000000000387,1.25000000001451));
#509=CARTESIAN_POINT('',(9.64999999999999,-8.25000000000387,1.25000000001451));
#510=CARTESIAN_POINT('',(7.65,-8.25000000000387,1.12500000001306));
#511=CARTESIAN_POINT('',(9.65,-5.84999999998809,5.95000000000001));
#512=CARTESIAN_POINT('',(9.65,-5.84999999998809,5.95));
#513=CARTESIAN_POINT('',(9.65,-5.84999999998667,4.70000000000001));
#514=CARTESIAN_POINT('',(9.65,-5.84999999998667,4.70000000000001));
#515=CARTESIAN_POINT('',(9.64999999999999,-8.25000000000387,1.25000000001451));
#516=CARTESIAN_POINT('',(9.65,-5.84999999998275,1.25000000001452));
#517=CARTESIAN_POINT('',(9.65,-5.84999999998275,1.25000000001452));
#518=CARTESIAN_POINT('',(9.65,-5.84999999998133,0.));
#519=CARTESIAN_POINT('',(9.65,-5.84999999998133,0.));
#520=CARTESIAN_POINT('',(9.65000000000001,-4.5,0.));
#521=CARTESIAN_POINT('',(9.65000000000001,-4.5,0.));
#522=CARTESIAN_POINT('',(9.65000000000001,-4.5,5.95));
#523=CARTESIAN_POINT('',(9.65000000000001,-4.5,5.95));
#524=CARTESIAN_POINT('',(9.64999999999999,-8.25000000000387,0.));
#525=CARTESIAN_POINT('',(9.65,-5.84999999998275,1.25000000001452));
#526=CARTESIAN_POINT('',(7.65,-5.84999999998274,1.25000000001452));
#527=CARTESIAN_POINT('',(7.65,-5.84999999998274,1.25000000001452));
#528=CARTESIAN_POINT('',(7.65,-5.84999999998274,1.25000000001452));
#529=CARTESIAN_POINT('',(7.64999999999999,-8.25000000000387,4.7));
#530=CARTESIAN_POINT('',(7.65,-5.84999999998666,4.70000000000001));
#531=CARTESIAN_POINT('',(7.65000000000001,-5.85,1.25000000001452));
#532=CARTESIAN_POINT('',(7.65000000000001,-5.85,1.12500000001306));
#533=CARTESIAN_POINT('',(7.65,-5.84999999998666,4.70000000000001));
#534=CARTESIAN_POINT('',(7.64999999999999,-8.25000000000387,4.7));
#535=CARTESIAN_POINT('',(9.65,-5.84999999998809,5.95000000000001));
#536=CARTESIAN_POINT('',(6.45,-5.85,0.));
#537=CARTESIAN_POINT('',(6.35,-5.84999999999627,-0.1));
#538=CARTESIAN_POINT('',(5.95,-4.5,5.95));
#539=CARTESIAN_POINT('',(5.95,-4.5,5.95));
#540=CARTESIAN_POINT('',(5.95,0.,5.95));
#541=CARTESIAN_POINT('',(5.95,0.,5.95));
#542=CARTESIAN_POINT('',(0.,0.,5.95));
#543=CARTESIAN_POINT('',(0.,0.,5.95));
#544=CARTESIAN_POINT('',(8.67361737988404E-16,-10.2071067811865,5.95));
#545=CARTESIAN_POINT('',(8.67361737988404E-16,-10.2071067811865,5.95));
#546=CARTESIAN_POINT('',(3.74289321881346,-13.95,5.95));
#547=CARTESIAN_POINT('',(-0.482500000000001,-14.6475,5.95));
#548=CARTESIAN_POINT('',(5.95,6.32174569853775E-13,3.3));
#549=CARTESIAN_POINT('',(5.95,6.32381245892905E-13,3.3));
#550=CARTESIAN_POINT('',(-8.67361737988404E-16,0.,3.3));
#551=CARTESIAN_POINT('',(0.,0.,3.3));
#552=CARTESIAN_POINT('',(5.95,0.,3.3));
#553=CARTESIAN_POINT('',(5.95,0.,2.96999999999996));
#554=CARTESIAN_POINT('',(5.95,-4.5,3.));
#555=CARTESIAN_POINT('',(5.95,-4.5,3.));
#556=CARTESIAN_POINT('',(5.95,-4.5,3.));
#557=CARTESIAN_POINT('',(5.95,-4.5,2.7));
#558=CARTESIAN_POINT('',(-8.67361737988404E-16,-4.5,3.));
#559=CARTESIAN_POINT('',(-8.67361737988404E-16,-4.5,3.));
#560=CARTESIAN_POINT('',(-2.60208521396521E-15,6.32381245892905E-13,3.3));
#561=CARTESIAN_POINT('',(5.95,-4.5,3.));
#562=CARTESIAN_POINT('',(-8.67361737988404E-16,-4.5,3.46944695195361E-15));
#563=CARTESIAN_POINT('',(-8.67361737988404E-16,-4.5,0.));
#564=CARTESIAN_POINT('',(3.82393160434253E-16,-4.5,0.));
#565=CARTESIAN_POINT('',(8.67361737988404E-16,-10.2071067811865,0.));
#566=CARTESIAN_POINT('',(8.67361737988404E-16,-10.2071067811865,0.));
#567=CARTESIAN_POINT('',(0.,0.,0.));
#568=CARTESIAN_POINT('',(9.65000000000001,-4.5,0.));
#569=CARTESIAN_POINT('',(9.75000000000001,-4.5,-0.1));
#570=CARTESIAN_POINT('',(8.67361737988404E-16,-10.2071067811865,0.));
#571=CARTESIAN_POINT('',(-0.482500000000001,-3.98025,0.));
#572=CARTESIAN_POINT('',(8.67361737988404E-16,-10.2071067811865,0.));
#573=MECHANICAL_DESIGN_GEOMETRIC_PRESENTATION_REPRESENTATION('',(#366,#367,
#368),#574);
#574=(
GEOMETRIC_REPRESENTATION_CONTEXT(3)
GLOBAL_UNCERTAINTY_ASSIGNED_CONTEXT((#575))
GLOBAL_UNIT_ASSIGNED_CONTEXT((#581,#577,#576))
REPRESENTATION_CONTEXT('100124057ugm000_b','TOP_LEVEL_ASSEMBLY_PART')
);
#575=UNCERTAINTY_MEASURE_WITH_UNIT(LENGTH_MEASURE(2.E-5),#581,
'DISTANCE_ACCURACY_VALUE','Maximum Tolerance applied to model');
#576=(
NAMED_UNIT(*)
SI_UNIT($,.STERADIAN.)
SOLID_ANGLE_UNIT()
);
#577=(
CONVERSION_BASED_UNIT('DEGREE',#579)
NAMED_UNIT(#578)
PLANE_ANGLE_UNIT()
);
#578=DIMENSIONAL_EXPONENTS(0.,0.,0.,0.,0.,0.,0.);
#579=PLANE_ANGLE_MEASURE_WITH_UNIT(PLANE_ANGLE_MEASURE(0.0174532925),#580);
#580=(
NAMED_UNIT(*)
PLANE_ANGLE_UNIT()
SI_UNIT($,.RADIAN.)
);
#581=(
LENGTH_UNIT()
NAMED_UNIT(*)
SI_UNIT(.MILLI.,.METRE.)
);
ENDSEC;
END-ISO-10303-21;
