ISO-10303-21;
HEADER;
/* Generated by software containing ST-Developer
 * from STEP Tools, Inc. (www.steptools.com) 
 */
/* OPTION: using custom schema-name function */

FILE_DESCRIPTION(
/* description */ (''),
/* implementation_level */ '2;1');

FILE_NAME(
/* name */ '100124056ugm000_b.stp',
/* time_stamp */ '2016-09-28T11:33:52+02:00',
/* author */ (''),
/* organization */ (''),
/* preprocessor_version */ 'ST-DEVELOPER v16',
/* originating_system */ 'SIEMENS PLM Software NX 10.0',
/* authorisation */ '');

FILE_SCHEMA (('AUTOMOTIVE_DESIGN { 1 0 10303 214 3 1 1 1 }'));
ENDSEC;

DATA;
#10=GEOMETRICALLY_BOUNDED_WIREFRAME_SHAPE_REPRESENTATION(
'100124056ugm000_b-None',(#33),#574);
#11=PROPERTY_DEFINITION_REPRESENTATION(#15,#13);
#12=PROPERTY_DEFINITION_REPRESENTATION(#16,#14);
#13=REPRESENTATION('',(#17),#574);
#14=REPRESENTATION('',(#18),#574);
#15=PROPERTY_DEFINITION('pmi validation property','',#23);
#16=PROPERTY_DEFINITION('pmi validation property','',#23);
#17=VALUE_REPRESENTATION_ITEM('number of annotations',COUNT_MEASURE(0.));
#18=VALUE_REPRESENTATION_ITEM('number of views',COUNT_MEASURE(0.));
#19=SHAPE_REPRESENTATION_RELATIONSHIP('None',
'relationship between 100124056ugm000_b-None and 100124056ugm000_b-Non
e',#32,#21);
#20=SHAPE_REPRESENTATION_RELATIONSHIP('None',
'relationship between 100124056ugm000_b-None and 100124056ugm000_b-Non
e',#32,#10);
#21=ADVANCED_BREP_SHAPE_REPRESENTATION('100124056ugm000_b-None',(#39),#574);
#22=SHAPE_DEFINITION_REPRESENTATION(#23,#32);
#23=PRODUCT_DEFINITION_SHAPE('','',#24);
#24=PRODUCT_DEFINITION(' ','',#26,#25);
#25=PRODUCT_DEFINITION_CONTEXT('part definition',#31,'design');
#26=PRODUCT_DEFINITION_FORMATION_WITH_SPECIFIED_SOURCE(' ',' ',#28,
 .NOT_KNOWN.);
#27=PRODUCT_RELATED_PRODUCT_CATEGORY('part','',(#28));
#28=PRODUCT('100124056ugm000_b','100124056ugm000_b',' ',(#29));
#29=PRODUCT_CONTEXT(' ',#31,'mechanical');
#30=APPLICATION_PROTOCOL_DEFINITION('international standard',
'automotive_design',2010,#31);
#31=APPLICATION_CONTEXT(
'core data for automotive mechanical design processes');
#32=SHAPE_REPRESENTATION('100124056ugm000_b-None',(#377),#574);
#33=GEOMETRIC_CURVE_SET('None',(#480,#481));
#34=SURFACE_STYLE_USAGE(.BOTH.,#35);
#35=SURFACE_SIDE_STYLE('',(#36));
#36=SURFACE_STYLE_FILL_AREA(#37);
#37=FILL_AREA_STYLE('',(#38));
#38=FILL_AREA_STYLE_COLOUR('',#363);
#39=MANIFOLD_SOLID_BREP('',#40);
#40=CLOSED_SHELL('',(#155,#156,#157,#158,#159,#160,#161,#162,#163,#164,
#165,#166,#167,#168,#169,#170,#171));
#41=PLANE('',#381);
#42=PLANE('',#382);
#43=PLANE('',#383);
#44=PLANE('',#384);
#45=PLANE('',#385);
#46=PLANE('',#386);
#47=PLANE('',#387);
#48=PLANE('',#388);
#49=PLANE('',#389);
#50=PLANE('',#390);
#51=PLANE('',#391);
#52=PLANE('',#392);
#53=PLANE('',#393);
#54=PLANE('',#394);
#55=PLANE('',#395);
#56=PLANE('',#396);
#57=FACE_OUTER_BOUND('',#181,.T.);
#58=FACE_OUTER_BOUND('',#182,.T.);
#59=FACE_OUTER_BOUND('',#183,.T.);
#60=FACE_OUTER_BOUND('',#184,.T.);
#61=FACE_OUTER_BOUND('',#185,.T.);
#62=FACE_OUTER_BOUND('',#186,.T.);
#63=FACE_OUTER_BOUND('',#187,.T.);
#64=FACE_OUTER_BOUND('',#188,.T.);
#65=FACE_OUTER_BOUND('',#189,.T.);
#66=FACE_OUTER_BOUND('',#190,.T.);
#67=FACE_OUTER_BOUND('',#193,.T.);
#68=FACE_OUTER_BOUND('',#194,.T.);
#69=FACE_OUTER_BOUND('',#195,.T.);
#70=FACE_OUTER_BOUND('',#196,.T.);
#71=LINE('',#487,#113);
#72=LINE('',#490,#114);
#73=LINE('',#492,#115);
#74=LINE('',#494,#116);
#75=LINE('',#496,#117);
#76=LINE('',#499,#118);
#77=LINE('',#501,#119);
#78=LINE('',#503,#120);
#79=LINE('',#505,#121);
#80=LINE('',#507,#122);
#81=LINE('',#509,#123);
#82=LINE('',#511,#124);
#83=LINE('',#513,#125);
#84=LINE('',#515,#126);
#85=LINE('',#517,#127);
#86=LINE('',#520,#128);
#87=LINE('',#522,#129);
#88=LINE('',#524,#130);
#89=LINE('',#526,#131);
#90=LINE('',#529,#132);
#91=LINE('',#530,#133);
#92=LINE('',#532,#134);
#93=LINE('',#534,#135);
#94=LINE('',#536,#136);
#95=LINE('',#538,#137);
#96=LINE('',#540,#138);
#97=LINE('',#542,#139);
#98=LINE('',#544,#140);
#99=LINE('',#546,#141);
#100=LINE('',#548,#142);
#101=LINE('',#550,#143);
#102=LINE('',#551,#144);
#103=LINE('',#553,#145);
#104=LINE('',#554,#146);
#105=LINE('',#556,#147);
#106=LINE('',#558,#148);
#107=LINE('',#560,#149);
#108=LINE('',#562,#150);
#109=LINE('',#564,#151);
#110=LINE('',#566,#152);
#111=LINE('',#568,#153);
#112=LINE('',#570,#154);
#113=VECTOR('',#405,1.);
#114=VECTOR('',#406,1.);
#115=VECTOR('',#407,1.);
#116=VECTOR('',#408,1.);
#117=VECTOR('',#411,1.);
#118=VECTOR('',#412,1.);
#119=VECTOR('',#413,1.);
#120=VECTOR('',#414,1.);
#121=VECTOR('',#417,1.);
#122=VECTOR('',#418,1.);
#123=VECTOR('',#419,1.);
#124=VECTOR('',#422,1.);
#125=VECTOR('',#423,1.);
#126=VECTOR('',#424,1.);
#127=VECTOR('',#427,1.);
#128=VECTOR('',#428,1.);
#129=VECTOR('',#429,1.);
#130=VECTOR('',#430,1.);
#131=VECTOR('',#433,1.);
#132=VECTOR('',#434,1.);
#133=VECTOR('',#435,1.);
#134=VECTOR('',#438,1.);
#135=VECTOR('',#439,1.);
#136=VECTOR('',#442,1.);
#137=VECTOR('',#443,1.);
#138=VECTOR('',#446,1.);
#139=VECTOR('',#447,1.);
#140=VECTOR('',#448,1.);
#141=VECTOR('',#449,1.);
#142=VECTOR('',#450,1.);
#143=VECTOR('',#453,1.);
#144=VECTOR('',#454,1.);
#145=VECTOR('',#457,1.);
#146=VECTOR('',#458,1.);
#147=VECTOR('',#459,1.);
#148=VECTOR('',#462,1.);
#149=VECTOR('',#463,1.);
#150=VECTOR('',#466,1.);
#151=VECTOR('',#467,1.);
#152=VECTOR('',#470,1.);
#153=VECTOR('',#471,1.);
#154=VECTOR('',#474,1.);
#155=ADVANCED_FACE('',(#173,#174),#172,.F.);
#156=ADVANCED_FACE('',(#57),#41,.T.);
#157=ADVANCED_FACE('',(#58),#42,.T.);
#158=ADVANCED_FACE('',(#59),#43,.T.);
#159=ADVANCED_FACE('',(#60),#44,.T.);
#160=ADVANCED_FACE('',(#61),#45,.F.);
#161=ADVANCED_FACE('',(#62),#46,.T.);
#162=ADVANCED_FACE('',(#63),#47,.T.);
#163=ADVANCED_FACE('',(#64),#48,.F.);
#164=ADVANCED_FACE('',(#65),#49,.T.);
#165=ADVANCED_FACE('',(#66),#50,.T.);
#166=ADVANCED_FACE('',(#175,#176),#51,.T.);
#167=ADVANCED_FACE('',(#67),#52,.T.);
#168=ADVANCED_FACE('',(#68),#53,.F.);
#169=ADVANCED_FACE('',(#69),#54,.T.);
#170=ADVANCED_FACE('',(#70),#55,.T.);
#171=ADVANCED_FACE('',(#177,#178),#56,.T.);
#172=CYLINDRICAL_SURFACE('',#380,1.29);
#173=FACE_BOUND('',#179,.T.);
#174=FACE_BOUND('',#180,.T.);
#175=FACE_BOUND('',#191,.T.);
#176=FACE_BOUND('',#192,.T.);
#177=FACE_BOUND('',#197,.T.);
#178=FACE_BOUND('',#198,.T.);
#179=EDGE_LOOP('',(#199));
#180=EDGE_LOOP('',(#200));
#181=EDGE_LOOP('',(#201,#202,#203,#204));
#182=EDGE_LOOP('',(#205,#206,#207,#208));
#183=EDGE_LOOP('',(#209,#210,#211,#212));
#184=EDGE_LOOP('',(#213,#214,#215,#216));
#185=EDGE_LOOP('',(#217,#218,#219,#220));
#186=EDGE_LOOP('',(#221,#222,#223,#224));
#187=EDGE_LOOP('',(#225,#226,#227,#228));
#188=EDGE_LOOP('',(#229,#230,#231,#232));
#189=EDGE_LOOP('',(#233,#234,#235,#236,#237,#238,#239,#240));
#190=EDGE_LOOP('',(#241,#242,#243,#244,#245,#246,#247,#248));
#191=EDGE_LOOP('',(#249));
#192=EDGE_LOOP('',(#250,#251,#252,#253,#254,#255,#256,#257,#258));
#193=EDGE_LOOP('',(#259,#260,#261,#262));
#194=EDGE_LOOP('',(#263,#264,#265,#266));
#195=EDGE_LOOP('',(#267,#268,#269,#270,#271,#272));
#196=EDGE_LOOP('',(#273,#274,#275,#276,#277,#278));
#197=EDGE_LOOP('',(#279));
#198=EDGE_LOOP('',(#280,#281,#282,#283,#284,#285,#286));
#199=ORIENTED_EDGE('',*,*,#317,.T.);
#200=ORIENTED_EDGE('',*,*,#318,.T.);
#201=ORIENTED_EDGE('',*,*,#319,.T.);
#202=ORIENTED_EDGE('',*,*,#320,.F.);
#203=ORIENTED_EDGE('',*,*,#321,.T.);
#204=ORIENTED_EDGE('',*,*,#322,.T.);
#205=ORIENTED_EDGE('',*,*,#323,.T.);
#206=ORIENTED_EDGE('',*,*,#324,.T.);
#207=ORIENTED_EDGE('',*,*,#325,.T.);
#208=ORIENTED_EDGE('',*,*,#326,.F.);
#209=ORIENTED_EDGE('',*,*,#327,.T.);
#210=ORIENTED_EDGE('',*,*,#328,.T.);
#211=ORIENTED_EDGE('',*,*,#329,.T.);
#212=ORIENTED_EDGE('',*,*,#324,.F.);
#213=ORIENTED_EDGE('',*,*,#330,.T.);
#214=ORIENTED_EDGE('',*,*,#331,.T.);
#215=ORIENTED_EDGE('',*,*,#332,.T.);
#216=ORIENTED_EDGE('',*,*,#328,.F.);
#217=ORIENTED_EDGE('',*,*,#333,.F.);
#218=ORIENTED_EDGE('',*,*,#334,.F.);
#219=ORIENTED_EDGE('',*,*,#335,.F.);
#220=ORIENTED_EDGE('',*,*,#336,.F.);
#221=ORIENTED_EDGE('',*,*,#337,.T.);
#222=ORIENTED_EDGE('',*,*,#338,.T.);
#223=ORIENTED_EDGE('',*,*,#333,.T.);
#224=ORIENTED_EDGE('',*,*,#339,.T.);
#225=ORIENTED_EDGE('',*,*,#340,.T.);
#226=ORIENTED_EDGE('',*,*,#339,.F.);
#227=ORIENTED_EDGE('',*,*,#336,.T.);
#228=ORIENTED_EDGE('',*,*,#341,.F.);
#229=ORIENTED_EDGE('',*,*,#342,.F.);
#230=ORIENTED_EDGE('',*,*,#343,.F.);
#231=ORIENTED_EDGE('',*,*,#337,.F.);
#232=ORIENTED_EDGE('',*,*,#340,.F.);
#233=ORIENTED_EDGE('',*,*,#343,.T.);
#234=ORIENTED_EDGE('',*,*,#344,.T.);
#235=ORIENTED_EDGE('',*,*,#345,.T.);
#236=ORIENTED_EDGE('',*,*,#346,.T.);
#237=ORIENTED_EDGE('',*,*,#347,.T.);
#238=ORIENTED_EDGE('',*,*,#348,.T.);
#239=ORIENTED_EDGE('',*,*,#334,.T.);
#240=ORIENTED_EDGE('',*,*,#338,.F.);
#241=ORIENTED_EDGE('',*,*,#349,.T.);
#242=ORIENTED_EDGE('',*,*,#344,.F.);
#243=ORIENTED_EDGE('',*,*,#342,.T.);
#244=ORIENTED_EDGE('',*,*,#341,.T.);
#245=ORIENTED_EDGE('',*,*,#335,.T.);
#246=ORIENTED_EDGE('',*,*,#348,.F.);
#247=ORIENTED_EDGE('',*,*,#350,.T.);
#248=ORIENTED_EDGE('',*,*,#331,.F.);
#249=ORIENTED_EDGE('',*,*,#318,.F.);
#250=ORIENTED_EDGE('',*,*,#349,.F.);
#251=ORIENTED_EDGE('',*,*,#330,.F.);
#252=ORIENTED_EDGE('',*,*,#327,.F.);
#253=ORIENTED_EDGE('',*,*,#323,.F.);
#254=ORIENTED_EDGE('',*,*,#351,.F.);
#255=ORIENTED_EDGE('',*,*,#321,.F.);
#256=ORIENTED_EDGE('',*,*,#352,.F.);
#257=ORIENTED_EDGE('',*,*,#353,.F.);
#258=ORIENTED_EDGE('',*,*,#345,.F.);
#259=ORIENTED_EDGE('',*,*,#354,.T.);
#260=ORIENTED_EDGE('',*,*,#355,.F.);
#261=ORIENTED_EDGE('',*,*,#352,.T.);
#262=ORIENTED_EDGE('',*,*,#320,.T.);
#263=ORIENTED_EDGE('',*,*,#356,.F.);
#264=ORIENTED_EDGE('',*,*,#354,.F.);
#265=ORIENTED_EDGE('',*,*,#319,.F.);
#266=ORIENTED_EDGE('',*,*,#357,.F.);
#267=ORIENTED_EDGE('',*,*,#357,.T.);
#268=ORIENTED_EDGE('',*,*,#322,.F.);
#269=ORIENTED_EDGE('',*,*,#351,.T.);
#270=ORIENTED_EDGE('',*,*,#326,.T.);
#271=ORIENTED_EDGE('',*,*,#358,.T.);
#272=ORIENTED_EDGE('',*,*,#359,.F.);
#273=ORIENTED_EDGE('',*,*,#359,.T.);
#274=ORIENTED_EDGE('',*,*,#360,.T.);
#275=ORIENTED_EDGE('',*,*,#346,.F.);
#276=ORIENTED_EDGE('',*,*,#353,.T.);
#277=ORIENTED_EDGE('',*,*,#355,.T.);
#278=ORIENTED_EDGE('',*,*,#356,.T.);
#279=ORIENTED_EDGE('',*,*,#317,.F.);
#280=ORIENTED_EDGE('',*,*,#360,.F.);
#281=ORIENTED_EDGE('',*,*,#358,.F.);
#282=ORIENTED_EDGE('',*,*,#325,.F.);
#283=ORIENTED_EDGE('',*,*,#329,.F.);
#284=ORIENTED_EDGE('',*,*,#332,.F.);
#285=ORIENTED_EDGE('',*,*,#350,.F.);
#286=ORIENTED_EDGE('',*,*,#347,.F.);
#287=VERTEX_POINT('',#483);
#288=VERTEX_POINT('',#485);
#289=VERTEX_POINT('',#488);
#290=VERTEX_POINT('',#489);
#291=VERTEX_POINT('',#491);
#292=VERTEX_POINT('',#493);
#293=VERTEX_POINT('',#497);
#294=VERTEX_POINT('',#498);
#295=VERTEX_POINT('',#500);
#296=VERTEX_POINT('',#502);
#297=VERTEX_POINT('',#506);
#298=VERTEX_POINT('',#508);
#299=VERTEX_POINT('',#512);
#300=VERTEX_POINT('',#514);
#301=VERTEX_POINT('',#518);
#302=VERTEX_POINT('',#519);
#303=VERTEX_POINT('',#521);
#304=VERTEX_POINT('',#523);
#305=VERTEX_POINT('',#527);
#306=VERTEX_POINT('',#528);
#307=VERTEX_POINT('',#533);
#308=VERTEX_POINT('',#537);
#309=VERTEX_POINT('',#541);
#310=VERTEX_POINT('',#543);
#311=VERTEX_POINT('',#545);
#312=VERTEX_POINT('',#547);
#313=VERTEX_POINT('',#555);
#314=VERTEX_POINT('',#559);
#315=VERTEX_POINT('',#563);
#316=VERTEX_POINT('',#567);
#317=EDGE_CURVE('',#287,#287,#361,.T.);
#318=EDGE_CURVE('',#288,#288,#362,.T.);
#319=EDGE_CURVE('',#289,#290,#71,.T.);
#320=EDGE_CURVE('',#291,#290,#72,.T.);
#321=EDGE_CURVE('',#291,#292,#73,.T.);
#322=EDGE_CURVE('',#292,#289,#74,.T.);
#323=EDGE_CURVE('',#293,#294,#75,.T.);
#324=EDGE_CURVE('',#294,#295,#76,.T.);
#325=EDGE_CURVE('',#295,#296,#77,.T.);
#326=EDGE_CURVE('',#293,#296,#78,.T.);
#327=EDGE_CURVE('',#294,#297,#79,.T.);
#328=EDGE_CURVE('',#297,#298,#80,.T.);
#329=EDGE_CURVE('',#298,#295,#81,.T.);
#330=EDGE_CURVE('',#297,#299,#82,.T.);
#331=EDGE_CURVE('',#299,#300,#83,.T.);
#332=EDGE_CURVE('',#300,#298,#84,.T.);
#333=EDGE_CURVE('',#301,#302,#85,.T.);
#334=EDGE_CURVE('',#303,#301,#86,.T.);
#335=EDGE_CURVE('',#304,#303,#87,.T.);
#336=EDGE_CURVE('',#302,#304,#88,.T.);
#337=EDGE_CURVE('',#305,#306,#89,.T.);
#338=EDGE_CURVE('',#306,#301,#90,.T.);
#339=EDGE_CURVE('',#302,#305,#91,.T.);
#340=EDGE_CURVE('',#307,#305,#92,.T.);
#341=EDGE_CURVE('',#307,#304,#93,.T.);
#342=EDGE_CURVE('',#308,#307,#94,.T.);
#343=EDGE_CURVE('',#306,#308,#95,.T.);
#344=EDGE_CURVE('',#308,#309,#96,.T.);
#345=EDGE_CURVE('',#309,#310,#97,.T.);
#346=EDGE_CURVE('',#310,#311,#98,.T.);
#347=EDGE_CURVE('',#311,#312,#99,.T.);
#348=EDGE_CURVE('',#312,#303,#100,.T.);
#349=EDGE_CURVE('',#299,#309,#101,.T.);
#350=EDGE_CURVE('',#312,#300,#102,.T.);
#351=EDGE_CURVE('',#292,#293,#103,.T.);
#352=EDGE_CURVE('',#313,#291,#104,.T.);
#353=EDGE_CURVE('',#310,#313,#105,.T.);
#354=EDGE_CURVE('',#290,#314,#106,.T.);
#355=EDGE_CURVE('',#313,#314,#107,.T.);
#356=EDGE_CURVE('',#314,#315,#108,.T.);
#357=EDGE_CURVE('',#315,#289,#109,.T.);
#358=EDGE_CURVE('',#296,#316,#110,.T.);
#359=EDGE_CURVE('',#315,#316,#111,.T.);
#360=EDGE_CURVE('',#316,#311,#112,.T.);
#361=CIRCLE('',#378,1.29);
#362=CIRCLE('',#379,1.29);
#363=COLOUR_RGB('ORANGE',1.,0.329991607537957,0.);
#364=PRESENTATION_LAYER_ASSIGNMENT('130','Layer 130',(#480,#481));
#365=PRESENTATION_LAYER_ASSIGNMENT('1','Layer 1',(#39));
#366=STYLED_ITEM('',(#369),#480);
#367=STYLED_ITEM('',(#370),#481);
#368=STYLED_ITEM('',(#371),#39);
#369=PRESENTATION_STYLE_ASSIGNMENT((#372));
#370=PRESENTATION_STYLE_ASSIGNMENT((#373));
#371=PRESENTATION_STYLE_ASSIGNMENT((#34));
#372=POINT_STYLE('',#374,POSITIVE_LENGTH_MEASURE(3.),#376);
#373=POINT_STYLE('',#375,POSITIVE_LENGTH_MEASURE(3.),#363);
#374=PRE_DEFINED_POINT_MARKER_SYMBOL('plus');
#375=PRE_DEFINED_POINT_MARKER_SYMBOL('plus');
#376=DRAUGHTING_PRE_DEFINED_COLOUR('yellow');
#377=AXIS2_PLACEMENT_3D('',#479,#397,#398);
#378=AXIS2_PLACEMENT_3D('',#482,#399,#400);
#379=AXIS2_PLACEMENT_3D('',#484,#401,#402);
#380=AXIS2_PLACEMENT_3D('',#486,#403,#404);
#381=AXIS2_PLACEMENT_3D('',#495,#409,#410);
#382=AXIS2_PLACEMENT_3D('',#504,#415,#416);
#383=AXIS2_PLACEMENT_3D('',#510,#420,#421);
#384=AXIS2_PLACEMENT_3D('',#516,#425,#426);
#385=AXIS2_PLACEMENT_3D('',#525,#431,#432);
#386=AXIS2_PLACEMENT_3D('',#531,#436,#437);
#387=AXIS2_PLACEMENT_3D('',#535,#440,#441);
#388=AXIS2_PLACEMENT_3D('',#539,#444,#445);
#389=AXIS2_PLACEMENT_3D('',#549,#451,#452);
#390=AXIS2_PLACEMENT_3D('',#552,#455,#456);
#391=AXIS2_PLACEMENT_3D('',#557,#460,#461);
#392=AXIS2_PLACEMENT_3D('',#561,#464,#465);
#393=AXIS2_PLACEMENT_3D('',#565,#468,#469);
#394=AXIS2_PLACEMENT_3D('',#569,#472,#473);
#395=AXIS2_PLACEMENT_3D('',#571,#475,#476);
#396=AXIS2_PLACEMENT_3D('',#572,#477,#478);
#397=DIRECTION('',(0.,0.,1.));
#398=DIRECTION('',(1.,0.,0.));
#399=DIRECTION('',(-5.0568028450196E-16,0.,1.));
#400=DIRECTION('',(1.,0.,6.72373440301088E-16));
#401=DIRECTION('',(0.,0.,-1.));
#402=DIRECTION('',(1.,0.,0.));
#403=DIRECTION('',(0.,0.,-1.));
#404=DIRECTION('',(1.,0.,0.));
#405=DIRECTION('',(1.,-1.54202703943842E-15,0.));
#406=DIRECTION('',(0.,0.,1.));
#407=DIRECTION('',(-1.,0.,0.));
#408=DIRECTION('',(0.,0.,1.));
#409=DIRECTION('',(0.,1.,0.));
#410=DIRECTION('',(-1.,0.,0.));
#411=DIRECTION('',(0.707106781186547,-0.707106781186548,0.));
#412=DIRECTION('',(0.,0.,1.));
#413=DIRECTION('',(-0.707106781186547,0.707106781186548,0.));
#414=DIRECTION('',(0.,0.,1.));
#415=DIRECTION('',(-0.707106781186548,-0.707106781186547,0.));
#416=DIRECTION('',(0.707106781186547,-0.707106781186548,0.));
#417=DIRECTION('',(1.,2.5632139641222E-15,0.));
#418=DIRECTION('',(0.,0.,1.));
#419=DIRECTION('',(-1.,-2.5632139641222E-15,0.));
#420=DIRECTION('',(2.5632139641222E-15,-1.,0.));
#421=DIRECTION('',(1.,2.56392129749372E-15,0.));
#422=DIRECTION('',(0.,1.,0.));
#423=DIRECTION('',(0.,0.,1.));
#424=DIRECTION('',(0.,-1.,0.));
#425=DIRECTION('',(1.,0.,0.));
#426=DIRECTION('',(0.,1.,0.));
#427=DIRECTION('',(-1.,6.93889390390723E-15,0.));
#428=DIRECTION('',(0.,-1.,-3.61400724159243E-15));
#429=DIRECTION('',(1.,-6.93889390390723E-15,0.));
#430=DIRECTION('',(0.,1.,3.61400724159243E-15));
#431=DIRECTION('',(2.50772128173623E-29,3.61400724159243E-15,-1.));
#432=DIRECTION('',(0.,1.,3.61429636219768E-15));
#433=DIRECTION('',(1.,-7.80625564189564E-15,0.));
#434=DIRECTION('',(0.,0.,1.));
#435=DIRECTION('',(0.,0.,-1.));
#436=DIRECTION('',(1.73472347597682E-15,-1.,4.06657505150769E-31));
#437=DIRECTION('',(1.,1.73472347597681E-15,0.));
#438=DIRECTION('',(0.,-1.,-4.33680868990386E-15));
#439=DIRECTION('',(0.,0.,1.));
#440=DIRECTION('',(-1.,1.44560289664501E-15,-2.34422091349044E-16));
#441=DIRECTION('',(-1.44589201722667E-15,-1.,0.));
#442=DIRECTION('',(-1.,6.93889390390723E-15,0.));
#443=DIRECTION('',(0.,1.,4.33680868990385E-15));
#444=DIRECTION('',(-3.00926553807858E-29,-4.33680868990386E-15,1.));
#445=DIRECTION('',(0.,-1.,-4.33680868994202E-15));
#446=DIRECTION('',(0.,1.13520304266604E-12,-1.));
#447=DIRECTION('',(3.85494105777955E-15,1.,0.));
#448=DIRECTION('',(0.,0.,1.));
#449=DIRECTION('',(-3.85494105776024E-15,-1.,0.));
#450=DIRECTION('',(0.,1.13659082146E-12,-1.));
#451=DIRECTION('',(1.,-3.70074341541337E-15,0.));
#452=DIRECTION('',(3.70016517425853E-15,1.,0.));
#453=DIRECTION('',(1.,5.83409189014451E-12,0.));
#454=DIRECTION('',(-1.,-3.7215239570565E-12,-4.33680868994202E-15));
#455=DIRECTION('',(4.97151339703472E-12,-1.,-7.52418678401321E-13));
#456=DIRECTION('',(1.,4.9715136521411E-12,0.));
#457=DIRECTION('',(8.49762578742784E-17,-1.,0.));
#458=DIRECTION('',(7.70988211545248E-16,1.,0.));
#459=DIRECTION('',(-1.,0.,0.));
#460=DIRECTION('',(0.,0.,-1.));
#461=DIRECTION('',(1.,0.,0.));
#462=DIRECTION('',(0.,-0.99778515785661,0.0665190105237643));
#463=DIRECTION('',(0.,0.,1.));
#464=DIRECTION('',(1.,-7.70988211545248E-16,0.));
#465=DIRECTION('',(7.71084585071691E-16,1.,0.));
#466=DIRECTION('',(-1.,1.45775082014858E-15,0.));
#467=DIRECTION('',(0.,0.99778515785661,-0.0665190105237643));
#468=DIRECTION('',(-9.69681421464892E-17,-0.0665190105237643,-0.99778515785661));
#469=DIRECTION('',(0.,0.99778515785661,-0.0665190105237643));
#470=DIRECTION('',(-8.49762578742784E-17,1.,0.));
#471=DIRECTION('',(0.,-5.78241158658936E-16,1.));
#472=DIRECTION('',(-1.,-8.49762578742784E-17,0.));
#473=DIRECTION('',(8.49762578742784E-17,-1.,0.));
#474=DIRECTION('',(1.,-8.98820453873993E-16,3.59528181549597E-16));
#475=DIRECTION('',(0.,1.,0.));
#476=DIRECTION('',(-1.,0.,0.));
#477=DIRECTION('',(0.,0.,1.));
#478=DIRECTION('',(1.,0.,0.));
#479=CARTESIAN_POINT('',(0.,0.,0.));
#480=CARTESIAN_POINT('CS1',(0.,0.,0.));
#481=CARTESIAN_POINT('CS2',(0.,0.,0.));
#482=CARTESIAN_POINT('',(3.95,-11.,5.95));
#483=CARTESIAN_POINT('',(5.24,-11.,5.95));
#484=CARTESIAN_POINT('',(3.95,-11.,0.));
#485=CARTESIAN_POINT('',(5.24,-11.,0.));
#486=CARTESIAN_POINT('',(3.95,-11.,5.95));
#487=CARTESIAN_POINT('',(-1.71868590151753E-15,6.41281868102653E-13,2.65));
#488=CARTESIAN_POINT('',(-1.73472347597681E-15,0.,2.65));
#489=CARTESIAN_POINT('',(5.95,6.32313483257124E-13,2.65));
#490=CARTESIAN_POINT('',(5.95,0.,0.));
#491=CARTESIAN_POINT('',(5.95,0.,0.));
#492=CARTESIAN_POINT('',(5.95,0.,0.));
#493=CARTESIAN_POINT('',(0.,0.,0.));
#494=CARTESIAN_POINT('',(0.,0.,0.));
#495=CARTESIAN_POINT('',(5.95,0.,0.));
#496=CARTESIAN_POINT('',(8.67361737988404E-16,-10.2071067811865,0.));
#497=CARTESIAN_POINT('',(8.67361737988404E-16,-10.2071067811865,0.));
#498=CARTESIAN_POINT('',(3.74289321881346,-13.95,0.));
#499=CARTESIAN_POINT('',(3.74289321881346,-13.95,0.));
#500=CARTESIAN_POINT('',(3.74289321881346,-13.95,5.95));
#501=CARTESIAN_POINT('',(3.74289321881346,-13.95,5.95));
#502=CARTESIAN_POINT('',(8.67361737988404E-16,-10.2071067811865,5.95));
#503=CARTESIAN_POINT('',(8.67361737988404E-16,-10.2071067811865,0.));
#504=CARTESIAN_POINT('',(8.67361737988404E-16,-10.2071067811865,0.));
#505=CARTESIAN_POINT('',(3.74289321881346,-13.95,0.));
#506=CARTESIAN_POINT('',(6.45,-13.95,0.));
#507=CARTESIAN_POINT('',(6.45,-13.95,0.));
#508=CARTESIAN_POINT('',(6.45,-13.95,5.95));
#509=CARTESIAN_POINT('',(6.45,-13.95,5.95));
#510=CARTESIAN_POINT('',(3.74289321881346,-13.95,0.));
#511=CARTESIAN_POINT('',(6.45,-13.95,0.));
#512=CARTESIAN_POINT('',(6.45,-5.85,0.));
#513=CARTESIAN_POINT('',(6.45,-5.85,0.));
#514=CARTESIAN_POINT('',(6.45,-5.85,5.95));
#515=CARTESIAN_POINT('',(6.45,-5.85,5.95));
#516=CARTESIAN_POINT('',(6.45,-13.95,0.));
#517=CARTESIAN_POINT('',(9.65,-8.25000000000388,4.7));
#518=CARTESIAN_POINT('',(9.65,-8.25000000000388,4.7));
#519=CARTESIAN_POINT('',(7.65,-8.25000000000387,4.7));
#520=CARTESIAN_POINT('',(9.65,-5.84999999998667,4.70000000000001));
#521=CARTESIAN_POINT('',(9.65,-5.84999999998667,4.70000000000001));
#522=CARTESIAN_POINT('',(7.65,-5.84999999998666,4.70000000000001));
#523=CARTESIAN_POINT('',(7.65,-5.84999999998666,4.70000000000001));
#524=CARTESIAN_POINT('',(7.65,-8.25000000000387,4.7));
#525=CARTESIAN_POINT('',(7.65,-8.25000000000387,4.7));
#526=CARTESIAN_POINT('',(7.65,-8.25000000000385,1.25000000001451));
#527=CARTESIAN_POINT('',(7.65,-8.25000000000385,1.25000000001451));
#528=CARTESIAN_POINT('',(9.65,-8.25000000000387,1.25000000001451));
#529=CARTESIAN_POINT('',(9.64999999999999,-8.25000000000387,1.25000000001451));
#530=CARTESIAN_POINT('',(7.65,-8.25000000000387,4.7));
#531=CARTESIAN_POINT('',(7.65,-8.25000000000387,1.12500000001306));
#532=CARTESIAN_POINT('',(7.65,-5.84999999998274,1.25000000001452));
#533=CARTESIAN_POINT('',(7.65,-5.84999999998274,1.25000000001452));
#534=CARTESIAN_POINT('',(7.65000000000001,-5.85,1.25000000001452));
#535=CARTESIAN_POINT('',(7.65000000000001,-5.85,1.12500000001306));
#536=CARTESIAN_POINT('',(9.65,-5.84999999998275,1.25000000001452));
#537=CARTESIAN_POINT('',(9.65,-5.84999999998275,1.25000000001452));
#538=CARTESIAN_POINT('',(9.65,-8.25000000000387,1.25000000001451));
#539=CARTESIAN_POINT('',(7.65,-5.84999999998274,1.25000000001452));
#540=CARTESIAN_POINT('',(9.65,-5.84999999998275,1.25000000001452));
#541=CARTESIAN_POINT('',(9.65,-5.84999999998133,0.));
#542=CARTESIAN_POINT('',(9.65,-5.84999999998133,0.));
#543=CARTESIAN_POINT('',(9.65000000000001,-4.5,0.));
#544=CARTESIAN_POINT('',(9.65000000000001,-4.5,0.));
#545=CARTESIAN_POINT('',(9.65000000000001,-4.5,5.95));
#546=CARTESIAN_POINT('',(9.65000000000001,-4.5,5.95));
#547=CARTESIAN_POINT('',(9.65,-5.84999999998809,5.95));
#548=CARTESIAN_POINT('',(9.65,-5.84999999998809,5.95000000000001));
#549=CARTESIAN_POINT('',(9.64999999999999,-8.25000000000387,0.));
#550=CARTESIAN_POINT('',(6.45,-5.85,0.));
#551=CARTESIAN_POINT('',(9.65,-5.84999999998809,5.95000000000001));
#552=CARTESIAN_POINT('',(6.35,-5.84999999999627,-0.1));
#553=CARTESIAN_POINT('',(0.,0.,0.));
#554=CARTESIAN_POINT('',(5.95,-4.5,0.));
#555=CARTESIAN_POINT('',(5.95,-4.5,0.));
#556=CARTESIAN_POINT('',(9.65000000000001,-4.5,0.));
#557=CARTESIAN_POINT('',(-0.482500000000001,0.6975,0.));
#558=CARTESIAN_POINT('',(5.95,6.32313483257124E-13,2.65));
#559=CARTESIAN_POINT('',(5.95,-4.5,2.95));
#560=CARTESIAN_POINT('',(5.95,-4.5,0.));
#561=CARTESIAN_POINT('',(5.95,-4.5,0.));
#562=CARTESIAN_POINT('',(5.95,-4.5,2.95));
#563=CARTESIAN_POINT('',(-1.71868590151753E-15,-4.49999999999999,2.95));
#564=CARTESIAN_POINT('',(-1.71868590151753E-15,-4.49999999999999,2.95));
#565=CARTESIAN_POINT('',(-1.71868590151753E-15,-4.49999999999999,2.95));
#566=CARTESIAN_POINT('',(8.67361737988404E-16,-10.2071067811865,5.95));
#567=CARTESIAN_POINT('',(-1.73472347597681E-15,-4.49999999999999,5.95));
#568=CARTESIAN_POINT('',(-1.71868590151753E-15,-4.49999999999999,2.95));
#569=CARTESIAN_POINT('',(0.,0.,0.));
#570=CARTESIAN_POINT('',(-1.71868590151753E-15,-4.49999999999999,5.95));
#571=CARTESIAN_POINT('',(9.75000000000001,-4.5,-0.1));
#572=CARTESIAN_POINT('',(-0.482500000000001,-14.6475,5.95));
#573=MECHANICAL_DESIGN_GEOMETRIC_PRESENTATION_REPRESENTATION('',(#366,#367,
#368),#574);
#574=(
GEOMETRIC_REPRESENTATION_CONTEXT(3)
GLOBAL_UNCERTAINTY_ASSIGNED_CONTEXT((#575))
GLOBAL_UNIT_ASSIGNED_CONTEXT((#581,#577,#576))
REPRESENTATION_CONTEXT('100124056ugm000_b','TOP_LEVEL_ASSEMBLY_PART')
);
#575=UNCERTAINTY_MEASURE_WITH_UNIT(LENGTH_MEASURE(2.E-5),#581,
'DISTANCE_ACCURACY_VALUE','Maximum Tolerance applied to model');
#576=(
NAMED_UNIT(*)
SI_UNIT($,.STERADIAN.)
SOLID_ANGLE_UNIT()
);
#577=(
CONVERSION_BASED_UNIT('DEGREE',#579)
NAMED_UNIT(#578)
PLANE_ANGLE_UNIT()
);
#578=DIMENSIONAL_EXPONENTS(0.,0.,0.,0.,0.,0.,0.);
#579=PLANE_ANGLE_MEASURE_WITH_UNIT(PLANE_ANGLE_MEASURE(0.0174532925),#580);
#580=(
NAMED_UNIT(*)
PLANE_ANGLE_UNIT()
SI_UNIT($,.RADIAN.)
);
#581=(
LENGTH_UNIT()
NAMED_UNIT(*)
SI_UNIT(.MILLI.,.METRE.)
);
ENDSEC;
END-ISO-10303-21;
