ISO-10303-21;
HEADER;
/* Generated by software containing ST-Developer
 * from STEP Tools, Inc. (www.steptools.com) 
 */
/* OPTION: using custom schema-name function */

FILE_DESCRIPTION(
/* description */ (''),
/* implementation_level */ '2;1');

FILE_NAME(
/* name */ '100124054ugm000_b.stp',
/* time_stamp */ '2016-09-28T11:33:17+02:00',
/* author */ (''),
/* organization */ (''),
/* preprocessor_version */ 'ST-DEVELOPER v16',
/* originating_system */ 'SIEMENS PLM Software NX 10.0',
/* authorisation */ '');

FILE_SCHEMA (('AUTOMOTIVE_DESIGN { 1 0 10303 214 3 1 1 1 }'));
ENDSEC;

DATA;
#10=GEOMETRICALLY_BOUNDED_WIREFRAME_SHAPE_REPRESENTATION(
'100124054ugm000_b-None',(#33),#607);
#11=PROPERTY_DEFINITION_REPRESENTATION(#15,#13);
#12=PROPERTY_DEFINITION_REPRESENTATION(#16,#14);
#13=REPRESENTATION('',(#17),#607);
#14=REPRESENTATION('',(#18),#607);
#15=PROPERTY_DEFINITION('pmi validation property','',#23);
#16=PROPERTY_DEFINITION('pmi validation property','',#23);
#17=VALUE_REPRESENTATION_ITEM('number of annotations',COUNT_MEASURE(0.));
#18=VALUE_REPRESENTATION_ITEM('number of views',COUNT_MEASURE(0.));
#19=SHAPE_REPRESENTATION_RELATIONSHIP('None',
'relationship between 100124054ugm000_b-None and 100124054ugm000_b-Non
e',#32,#21);
#20=SHAPE_REPRESENTATION_RELATIONSHIP('None',
'relationship between 100124054ugm000_b-None and 100124054ugm000_b-Non
e',#32,#10);
#21=ADVANCED_BREP_SHAPE_REPRESENTATION('100124054ugm000_b-None',(#39),#607);
#22=SHAPE_DEFINITION_REPRESENTATION(#23,#32);
#23=PRODUCT_DEFINITION_SHAPE('','',#24);
#24=PRODUCT_DEFINITION(' ','',#26,#25);
#25=PRODUCT_DEFINITION_CONTEXT('part definition',#31,'design');
#26=PRODUCT_DEFINITION_FORMATION_WITH_SPECIFIED_SOURCE(' ',' ',#28,
 .NOT_KNOWN.);
#27=PRODUCT_RELATED_PRODUCT_CATEGORY('part','',(#28));
#28=PRODUCT('100124054ugm000_b','100124054ugm000_b',' ',(#29));
#29=PRODUCT_CONTEXT(' ',#31,'mechanical');
#30=APPLICATION_PROTOCOL_DEFINITION('international standard',
'automotive_design',2010,#31);
#31=APPLICATION_CONTEXT(
'core data for automotive mechanical design processes');
#32=SHAPE_REPRESENTATION('100124054ugm000_b-None',(#398),#607);
#33=GEOMETRIC_CURVE_SET('None',(#507,#508));
#34=SURFACE_STYLE_USAGE(.BOTH.,#35);
#35=SURFACE_SIDE_STYLE('',(#36));
#36=SURFACE_STYLE_FILL_AREA(#37);
#37=FILL_AREA_STYLE('',(#38));
#38=FILL_AREA_STYLE_COLOUR('',#384);
#39=MANIFOLD_SOLID_BREP('',#40);
#40=CLOSED_SHELL('',(#163,#164,#165,#166,#167,#168,#169,#170,#171,#172,
#173,#174,#175,#176,#177,#178,#179,#180));
#41=PLANE('',#402);
#42=PLANE('',#403);
#43=PLANE('',#404);
#44=PLANE('',#405);
#45=PLANE('',#406);
#46=PLANE('',#407);
#47=PLANE('',#408);
#48=PLANE('',#409);
#49=PLANE('',#410);
#50=PLANE('',#411);
#51=PLANE('',#412);
#52=PLANE('',#413);
#53=PLANE('',#414);
#54=PLANE('',#415);
#55=PLANE('',#416);
#56=PLANE('',#417);
#57=PLANE('',#418);
#58=FACE_OUTER_BOUND('',#190,.T.);
#59=FACE_OUTER_BOUND('',#191,.T.);
#60=FACE_OUTER_BOUND('',#192,.T.);
#61=FACE_OUTER_BOUND('',#193,.T.);
#62=FACE_OUTER_BOUND('',#194,.T.);
#63=FACE_OUTER_BOUND('',#195,.T.);
#64=FACE_OUTER_BOUND('',#196,.T.);
#65=FACE_OUTER_BOUND('',#197,.T.);
#66=FACE_OUTER_BOUND('',#198,.T.);
#67=FACE_OUTER_BOUND('',#199,.T.);
#68=FACE_OUTER_BOUND('',#200,.T.);
#69=FACE_OUTER_BOUND('',#201,.T.);
#70=FACE_OUTER_BOUND('',#202,.T.);
#71=FACE_OUTER_BOUND('',#203,.T.);
#72=FACE_OUTER_BOUND('',#206,.T.);
#73=LINE('',#514,#118);
#74=LINE('',#517,#119);
#75=LINE('',#519,#120);
#76=LINE('',#521,#121);
#77=LINE('',#523,#122);
#78=LINE('',#526,#123);
#79=LINE('',#527,#124);
#80=LINE('',#529,#125);
#81=LINE('',#531,#126);
#82=LINE('',#533,#127);
#83=LINE('',#535,#128);
#84=LINE('',#537,#129);
#85=LINE('',#539,#130);
#86=LINE('',#541,#131);
#87=LINE('',#543,#132);
#88=LINE('',#545,#133);
#89=LINE('',#547,#134);
#90=LINE('',#549,#135);
#91=LINE('',#551,#136);
#92=LINE('',#553,#137);
#93=LINE('',#555,#138);
#94=LINE('',#557,#139);
#95=LINE('',#559,#140);
#96=LINE('',#561,#141);
#97=LINE('',#563,#142);
#98=LINE('',#565,#143);
#99=LINE('',#567,#144);
#100=LINE('',#569,#145);
#101=LINE('',#571,#146);
#102=LINE('',#573,#147);
#103=LINE('',#575,#148);
#104=LINE('',#577,#149);
#105=LINE('',#579,#150);
#106=LINE('',#581,#151);
#107=LINE('',#583,#152);
#108=LINE('',#585,#153);
#109=LINE('',#587,#154);
#110=LINE('',#589,#155);
#111=LINE('',#591,#156);
#112=LINE('',#593,#157);
#113=LINE('',#595,#158);
#114=LINE('',#597,#159);
#115=LINE('',#599,#160);
#116=LINE('',#601,#161);
#117=LINE('',#603,#162);
#118=VECTOR('',#427,1.);
#119=VECTOR('',#428,1.);
#120=VECTOR('',#429,1.);
#121=VECTOR('',#430,1.);
#122=VECTOR('',#433,1.);
#123=VECTOR('',#434,1.);
#124=VECTOR('',#435,1.);
#125=VECTOR('',#438,1.);
#126=VECTOR('',#439,1.);
#127=VECTOR('',#442,1.);
#128=VECTOR('',#443,1.);
#129=VECTOR('',#446,1.);
#130=VECTOR('',#447,1.);
#131=VECTOR('',#448,1.);
#132=VECTOR('',#449,1.);
#133=VECTOR('',#450,1.);
#134=VECTOR('',#453,1.);
#135=VECTOR('',#454,1.);
#136=VECTOR('',#455,1.);
#137=VECTOR('',#458,1.);
#138=VECTOR('',#459,1.);
#139=VECTOR('',#460,1.);
#140=VECTOR('',#463,1.);
#141=VECTOR('',#464,1.);
#142=VECTOR('',#465,1.);
#143=VECTOR('',#468,1.);
#144=VECTOR('',#469,1.);
#145=VECTOR('',#470,1.);
#146=VECTOR('',#473,1.);
#147=VECTOR('',#474,1.);
#148=VECTOR('',#475,1.);
#149=VECTOR('',#478,1.);
#150=VECTOR('',#479,1.);
#151=VECTOR('',#480,1.);
#152=VECTOR('',#483,1.);
#153=VECTOR('',#484,1.);
#154=VECTOR('',#485,1.);
#155=VECTOR('',#488,1.);
#156=VECTOR('',#489,1.);
#157=VECTOR('',#490,1.);
#158=VECTOR('',#493,1.);
#159=VECTOR('',#494,1.);
#160=VECTOR('',#495,1.);
#161=VECTOR('',#498,1.);
#162=VECTOR('',#501,1.);
#163=ADVANCED_FACE('',(#182,#183),#181,.F.);
#164=ADVANCED_FACE('',(#58),#41,.F.);
#165=ADVANCED_FACE('',(#59),#42,.T.);
#166=ADVANCED_FACE('',(#60),#43,.T.);
#167=ADVANCED_FACE('',(#61),#44,.F.);
#168=ADVANCED_FACE('',(#62),#45,.T.);
#169=ADVANCED_FACE('',(#63),#46,.T.);
#170=ADVANCED_FACE('',(#64),#47,.T.);
#171=ADVANCED_FACE('',(#65),#48,.T.);
#172=ADVANCED_FACE('',(#66),#49,.T.);
#173=ADVANCED_FACE('',(#67),#50,.T.);
#174=ADVANCED_FACE('',(#68),#51,.T.);
#175=ADVANCED_FACE('',(#69),#52,.T.);
#176=ADVANCED_FACE('',(#70),#53,.T.);
#177=ADVANCED_FACE('',(#71),#54,.T.);
#178=ADVANCED_FACE('',(#184,#185),#55,.T.);
#179=ADVANCED_FACE('',(#72),#56,.T.);
#180=ADVANCED_FACE('',(#186,#187),#57,.T.);
#181=CYLINDRICAL_SURFACE('',#401,1.29);
#182=FACE_BOUND('',#188,.T.);
#183=FACE_BOUND('',#189,.T.);
#184=FACE_BOUND('',#204,.T.);
#185=FACE_BOUND('',#205,.T.);
#186=FACE_BOUND('',#207,.T.);
#187=FACE_BOUND('',#208,.T.);
#188=EDGE_LOOP('',(#209));
#189=EDGE_LOOP('',(#210));
#190=EDGE_LOOP('',(#211,#212,#213,#214));
#191=EDGE_LOOP('',(#215,#216,#217,#218));
#192=EDGE_LOOP('',(#219,#220,#221,#222));
#193=EDGE_LOOP('',(#223,#224,#225,#226));
#194=EDGE_LOOP('',(#227,#228,#229,#230,#231,#232,#233,#234));
#195=EDGE_LOOP('',(#235,#236,#237,#238));
#196=EDGE_LOOP('',(#239,#240,#241,#242));
#197=EDGE_LOOP('',(#243,#244,#245,#246));
#198=EDGE_LOOP('',(#247,#248,#249,#250));
#199=EDGE_LOOP('',(#251,#252,#253,#254));
#200=EDGE_LOOP('',(#255,#256,#257,#258));
#201=EDGE_LOOP('',(#259,#260,#261,#262));
#202=EDGE_LOOP('',(#263,#264,#265,#266));
#203=EDGE_LOOP('',(#267,#268,#269,#270));
#204=EDGE_LOOP('',(#271));
#205=EDGE_LOOP('',(#272,#273,#274,#275,#276,#277,#278,#279,#280,#281,#282));
#206=EDGE_LOOP('',(#283,#284,#285,#286,#287,#288,#289,#290));
#207=EDGE_LOOP('',(#291));
#208=EDGE_LOOP('',(#292,#293,#294,#295,#296,#297,#298,#299,#300,#301,#302));
#209=ORIENTED_EDGE('',*,*,#335,.T.);
#210=ORIENTED_EDGE('',*,*,#336,.T.);
#211=ORIENTED_EDGE('',*,*,#337,.F.);
#212=ORIENTED_EDGE('',*,*,#338,.F.);
#213=ORIENTED_EDGE('',*,*,#339,.F.);
#214=ORIENTED_EDGE('',*,*,#340,.F.);
#215=ORIENTED_EDGE('',*,*,#341,.T.);
#216=ORIENTED_EDGE('',*,*,#342,.T.);
#217=ORIENTED_EDGE('',*,*,#337,.T.);
#218=ORIENTED_EDGE('',*,*,#343,.F.);
#219=ORIENTED_EDGE('',*,*,#344,.T.);
#220=ORIENTED_EDGE('',*,*,#343,.T.);
#221=ORIENTED_EDGE('',*,*,#340,.T.);
#222=ORIENTED_EDGE('',*,*,#345,.F.);
#223=ORIENTED_EDGE('',*,*,#346,.F.);
#224=ORIENTED_EDGE('',*,*,#347,.F.);
#225=ORIENTED_EDGE('',*,*,#341,.F.);
#226=ORIENTED_EDGE('',*,*,#344,.F.);
#227=ORIENTED_EDGE('',*,*,#347,.T.);
#228=ORIENTED_EDGE('',*,*,#348,.F.);
#229=ORIENTED_EDGE('',*,*,#349,.T.);
#230=ORIENTED_EDGE('',*,*,#350,.T.);
#231=ORIENTED_EDGE('',*,*,#351,.T.);
#232=ORIENTED_EDGE('',*,*,#352,.F.);
#233=ORIENTED_EDGE('',*,*,#338,.T.);
#234=ORIENTED_EDGE('',*,*,#342,.F.);
#235=ORIENTED_EDGE('',*,*,#353,.T.);
#236=ORIENTED_EDGE('',*,*,#354,.T.);
#237=ORIENTED_EDGE('',*,*,#355,.T.);
#238=ORIENTED_EDGE('',*,*,#350,.F.);
#239=ORIENTED_EDGE('',*,*,#356,.T.);
#240=ORIENTED_EDGE('',*,*,#357,.F.);
#241=ORIENTED_EDGE('',*,*,#358,.T.);
#242=ORIENTED_EDGE('',*,*,#354,.F.);
#243=ORIENTED_EDGE('',*,*,#359,.T.);
#244=ORIENTED_EDGE('',*,*,#360,.T.);
#245=ORIENTED_EDGE('',*,*,#361,.T.);
#246=ORIENTED_EDGE('',*,*,#357,.T.);
#247=ORIENTED_EDGE('',*,*,#362,.T.);
#248=ORIENTED_EDGE('',*,*,#363,.T.);
#249=ORIENTED_EDGE('',*,*,#364,.T.);
#250=ORIENTED_EDGE('',*,*,#360,.F.);
#251=ORIENTED_EDGE('',*,*,#365,.T.);
#252=ORIENTED_EDGE('',*,*,#366,.T.);
#253=ORIENTED_EDGE('',*,*,#367,.T.);
#254=ORIENTED_EDGE('',*,*,#363,.F.);
#255=ORIENTED_EDGE('',*,*,#368,.T.);
#256=ORIENTED_EDGE('',*,*,#369,.T.);
#257=ORIENTED_EDGE('',*,*,#370,.T.);
#258=ORIENTED_EDGE('',*,*,#366,.F.);
#259=ORIENTED_EDGE('',*,*,#371,.T.);
#260=ORIENTED_EDGE('',*,*,#372,.T.);
#261=ORIENTED_EDGE('',*,*,#373,.T.);
#262=ORIENTED_EDGE('',*,*,#369,.F.);
#263=ORIENTED_EDGE('',*,*,#374,.T.);
#264=ORIENTED_EDGE('',*,*,#375,.T.);
#265=ORIENTED_EDGE('',*,*,#376,.T.);
#266=ORIENTED_EDGE('',*,*,#372,.F.);
#267=ORIENTED_EDGE('',*,*,#377,.T.);
#268=ORIENTED_EDGE('',*,*,#378,.T.);
#269=ORIENTED_EDGE('',*,*,#379,.T.);
#270=ORIENTED_EDGE('',*,*,#375,.F.);
#271=ORIENTED_EDGE('',*,*,#336,.F.);
#272=ORIENTED_EDGE('',*,*,#380,.F.);
#273=ORIENTED_EDGE('',*,*,#377,.F.);
#274=ORIENTED_EDGE('',*,*,#374,.F.);
#275=ORIENTED_EDGE('',*,*,#371,.F.);
#276=ORIENTED_EDGE('',*,*,#368,.F.);
#277=ORIENTED_EDGE('',*,*,#365,.F.);
#278=ORIENTED_EDGE('',*,*,#362,.F.);
#279=ORIENTED_EDGE('',*,*,#359,.F.);
#280=ORIENTED_EDGE('',*,*,#356,.F.);
#281=ORIENTED_EDGE('',*,*,#353,.F.);
#282=ORIENTED_EDGE('',*,*,#349,.F.);
#283=ORIENTED_EDGE('',*,*,#380,.T.);
#284=ORIENTED_EDGE('',*,*,#348,.T.);
#285=ORIENTED_EDGE('',*,*,#346,.T.);
#286=ORIENTED_EDGE('',*,*,#345,.T.);
#287=ORIENTED_EDGE('',*,*,#339,.T.);
#288=ORIENTED_EDGE('',*,*,#352,.T.);
#289=ORIENTED_EDGE('',*,*,#381,.T.);
#290=ORIENTED_EDGE('',*,*,#378,.F.);
#291=ORIENTED_EDGE('',*,*,#335,.F.);
#292=ORIENTED_EDGE('',*,*,#381,.F.);
#293=ORIENTED_EDGE('',*,*,#351,.F.);
#294=ORIENTED_EDGE('',*,*,#355,.F.);
#295=ORIENTED_EDGE('',*,*,#358,.F.);
#296=ORIENTED_EDGE('',*,*,#361,.F.);
#297=ORIENTED_EDGE('',*,*,#364,.F.);
#298=ORIENTED_EDGE('',*,*,#367,.F.);
#299=ORIENTED_EDGE('',*,*,#370,.F.);
#300=ORIENTED_EDGE('',*,*,#373,.F.);
#301=ORIENTED_EDGE('',*,*,#376,.F.);
#302=ORIENTED_EDGE('',*,*,#379,.F.);
#303=VERTEX_POINT('',#510);
#304=VERTEX_POINT('',#512);
#305=VERTEX_POINT('',#515);
#306=VERTEX_POINT('',#516);
#307=VERTEX_POINT('',#518);
#308=VERTEX_POINT('',#520);
#309=VERTEX_POINT('',#524);
#310=VERTEX_POINT('',#525);
#311=VERTEX_POINT('',#530);
#312=VERTEX_POINT('',#534);
#313=VERTEX_POINT('',#538);
#314=VERTEX_POINT('',#540);
#315=VERTEX_POINT('',#542);
#316=VERTEX_POINT('',#544);
#317=VERTEX_POINT('',#548);
#318=VERTEX_POINT('',#550);
#319=VERTEX_POINT('',#554);
#320=VERTEX_POINT('',#556);
#321=VERTEX_POINT('',#560);
#322=VERTEX_POINT('',#562);
#323=VERTEX_POINT('',#566);
#324=VERTEX_POINT('',#568);
#325=VERTEX_POINT('',#572);
#326=VERTEX_POINT('',#574);
#327=VERTEX_POINT('',#578);
#328=VERTEX_POINT('',#580);
#329=VERTEX_POINT('',#584);
#330=VERTEX_POINT('',#586);
#331=VERTEX_POINT('',#590);
#332=VERTEX_POINT('',#592);
#333=VERTEX_POINT('',#596);
#334=VERTEX_POINT('',#598);
#335=EDGE_CURVE('',#303,#303,#382,.T.);
#336=EDGE_CURVE('',#304,#304,#383,.T.);
#337=EDGE_CURVE('',#305,#306,#73,.T.);
#338=EDGE_CURVE('',#307,#305,#74,.T.);
#339=EDGE_CURVE('',#308,#307,#75,.T.);
#340=EDGE_CURVE('',#306,#308,#76,.T.);
#341=EDGE_CURVE('',#309,#310,#77,.T.);
#342=EDGE_CURVE('',#310,#305,#78,.T.);
#343=EDGE_CURVE('',#309,#306,#79,.T.);
#344=EDGE_CURVE('',#311,#309,#80,.T.);
#345=EDGE_CURVE('',#311,#308,#81,.T.);
#346=EDGE_CURVE('',#312,#311,#82,.T.);
#347=EDGE_CURVE('',#310,#312,#83,.T.);
#348=EDGE_CURVE('',#313,#312,#84,.T.);
#349=EDGE_CURVE('',#313,#314,#85,.T.);
#350=EDGE_CURVE('',#314,#315,#86,.T.);
#351=EDGE_CURVE('',#315,#316,#87,.T.);
#352=EDGE_CURVE('',#307,#316,#88,.T.);
#353=EDGE_CURVE('',#314,#317,#89,.T.);
#354=EDGE_CURVE('',#317,#318,#90,.T.);
#355=EDGE_CURVE('',#318,#315,#91,.T.);
#356=EDGE_CURVE('',#317,#319,#92,.T.);
#357=EDGE_CURVE('',#320,#319,#93,.T.);
#358=EDGE_CURVE('',#320,#318,#94,.T.);
#359=EDGE_CURVE('',#319,#321,#95,.T.);
#360=EDGE_CURVE('',#321,#322,#96,.T.);
#361=EDGE_CURVE('',#322,#320,#97,.T.);
#362=EDGE_CURVE('',#321,#323,#98,.T.);
#363=EDGE_CURVE('',#323,#324,#99,.T.);
#364=EDGE_CURVE('',#324,#322,#100,.T.);
#365=EDGE_CURVE('',#323,#325,#101,.T.);
#366=EDGE_CURVE('',#325,#326,#102,.T.);
#367=EDGE_CURVE('',#326,#324,#103,.T.);
#368=EDGE_CURVE('',#325,#327,#104,.T.);
#369=EDGE_CURVE('',#327,#328,#105,.T.);
#370=EDGE_CURVE('',#328,#326,#106,.T.);
#371=EDGE_CURVE('',#327,#329,#107,.T.);
#372=EDGE_CURVE('',#329,#330,#108,.T.);
#373=EDGE_CURVE('',#330,#328,#109,.T.);
#374=EDGE_CURVE('',#329,#331,#110,.T.);
#375=EDGE_CURVE('',#331,#332,#111,.T.);
#376=EDGE_CURVE('',#332,#330,#112,.T.);
#377=EDGE_CURVE('',#331,#333,#113,.T.);
#378=EDGE_CURVE('',#333,#334,#114,.T.);
#379=EDGE_CURVE('',#334,#332,#115,.T.);
#380=EDGE_CURVE('',#333,#313,#116,.T.);
#381=EDGE_CURVE('',#316,#334,#117,.T.);
#382=CIRCLE('',#399,1.29);
#383=CIRCLE('',#400,1.29);
#384=COLOUR_RGB('ORANGE',1.,0.329991607537957,0.);
#385=PRESENTATION_LAYER_ASSIGNMENT('130','Layer 130',(#507,#508));
#386=PRESENTATION_LAYER_ASSIGNMENT('1','Layer 1',(#39));
#387=STYLED_ITEM('',(#390),#507);
#388=STYLED_ITEM('',(#391),#508);
#389=STYLED_ITEM('',(#392),#39);
#390=PRESENTATION_STYLE_ASSIGNMENT((#393));
#391=PRESENTATION_STYLE_ASSIGNMENT((#394));
#392=PRESENTATION_STYLE_ASSIGNMENT((#34));
#393=POINT_STYLE('',#395,POSITIVE_LENGTH_MEASURE(3.),#397);
#394=POINT_STYLE('',#396,POSITIVE_LENGTH_MEASURE(3.),#384);
#395=PRE_DEFINED_POINT_MARKER_SYMBOL('plus');
#396=PRE_DEFINED_POINT_MARKER_SYMBOL('plus');
#397=DRAUGHTING_PRE_DEFINED_COLOUR('yellow');
#398=AXIS2_PLACEMENT_3D('',#506,#419,#420);
#399=AXIS2_PLACEMENT_3D('',#509,#421,#422);
#400=AXIS2_PLACEMENT_3D('',#511,#423,#424);
#401=AXIS2_PLACEMENT_3D('',#513,#425,#426);
#402=AXIS2_PLACEMENT_3D('',#522,#431,#432);
#403=AXIS2_PLACEMENT_3D('',#528,#436,#437);
#404=AXIS2_PLACEMENT_3D('',#532,#440,#441);
#405=AXIS2_PLACEMENT_3D('',#536,#444,#445);
#406=AXIS2_PLACEMENT_3D('',#546,#451,#452);
#407=AXIS2_PLACEMENT_3D('',#552,#456,#457);
#408=AXIS2_PLACEMENT_3D('',#558,#461,#462);
#409=AXIS2_PLACEMENT_3D('',#564,#466,#467);
#410=AXIS2_PLACEMENT_3D('',#570,#471,#472);
#411=AXIS2_PLACEMENT_3D('',#576,#476,#477);
#412=AXIS2_PLACEMENT_3D('',#582,#481,#482);
#413=AXIS2_PLACEMENT_3D('',#588,#486,#487);
#414=AXIS2_PLACEMENT_3D('',#594,#491,#492);
#415=AXIS2_PLACEMENT_3D('',#600,#496,#497);
#416=AXIS2_PLACEMENT_3D('',#602,#499,#500);
#417=AXIS2_PLACEMENT_3D('',#604,#502,#503);
#418=AXIS2_PLACEMENT_3D('',#605,#504,#505);
#419=DIRECTION('',(0.,0.,1.));
#420=DIRECTION('',(1.,0.,0.));
#421=DIRECTION('',(-5.0568028450196E-16,0.,1.));
#422=DIRECTION('',(1.,0.,6.72373440301088E-16));
#423=DIRECTION('',(0.,0.,-1.));
#424=DIRECTION('',(1.,-6.72373440301086E-16,0.));
#425=DIRECTION('',(0.,0.,-1.));
#426=DIRECTION('',(1.,-6.72373440301086E-16,0.));
#427=DIRECTION('',(-1.,0.,0.));
#428=DIRECTION('',(0.,-1.,0.));
#429=DIRECTION('',(1.,0.,0.));
#430=DIRECTION('',(0.,1.,0.));
#431=DIRECTION('',(0.,0.,-1.));
#432=DIRECTION('',(0.,1.,0.));
#433=DIRECTION('',(1.,0.,0.));
#434=DIRECTION('',(0.,0.,1.));
#435=DIRECTION('',(0.,0.,1.));
#436=DIRECTION('',(-6.50521303491303E-16,-1.,0.));
#437=DIRECTION('',(1.,-6.50521303491303E-16,0.));
#438=DIRECTION('',(0.,-1.,0.));
#439=DIRECTION('',(2.51409199416928E-16,-6.28522998542321E-17,1.));
#440=DIRECTION('',(-1.,0.,0.));
#441=DIRECTION('',(0.,-1.,0.));
#442=DIRECTION('',(-1.,0.,0.));
#443=DIRECTION('',(0.,1.,0.));
#444=DIRECTION('',(0.,0.,1.));
#445=DIRECTION('',(0.,-1.,0.));
#446=DIRECTION('',(0.,-3.46944695191815E-16,1.));
#447=DIRECTION('',(0.,1.,0.));
#448=DIRECTION('',(0.,0.,1.));
#449=DIRECTION('',(-1.28498035257541E-15,-1.,0.));
#450=DIRECTION('',(0.,0.,1.));
#451=DIRECTION('',(1.,0.,0.));
#452=DIRECTION('',(0.,1.,0.));
#453=DIRECTION('',(-1.,0.,0.));
#454=DIRECTION('',(0.,0.,1.));
#455=DIRECTION('',(1.,0.,0.));
#456=DIRECTION('',(0.,1.,0.));
#457=DIRECTION('',(-1.,0.,0.));
#458=DIRECTION('',(1.92747052886312E-16,1.,0.));
#459=DIRECTION('',(0.,0.,-1.));
#460=DIRECTION('',(-1.92747052886312E-16,-1.,0.));
#461=DIRECTION('',(1.,-1.92747052886312E-16,0.));
#462=DIRECTION('',(1.92554305833426E-16,1.,0.));
#463=DIRECTION('',(-1.,0.,0.));
#464=DIRECTION('',(0.,0.,1.));
#465=DIRECTION('',(1.,0.,0.));
#466=DIRECTION('',(0.,1.,0.));
#467=DIRECTION('',(-1.,0.,0.));
#468=DIRECTION('',(-0.0665190105237743,-0.997785157856609,0.));
#469=DIRECTION('',(0.,0.,1.));
#470=DIRECTION('',(0.0665190105237743,0.997785157856609,0.));
#471=DIRECTION('',(-0.997785157856609,0.0665190105237743,0.));
#472=DIRECTION('',(-0.0665190105237743,-0.997785157856609,0.));
#473=DIRECTION('',(-1.,0.,0.));
#474=DIRECTION('',(0.,0.,1.));
#475=DIRECTION('',(1.,0.,0.));
#476=DIRECTION('',(0.,1.,0.));
#477=DIRECTION('',(-1.,0.,0.));
#478=DIRECTION('',(0.,-1.,0.));
#479=DIRECTION('',(0.,0.,1.));
#480=DIRECTION('',(0.,1.,0.));
#481=DIRECTION('',(-1.,0.,0.));
#482=DIRECTION('',(0.,-1.,0.));
#483=DIRECTION('',(0.707106781186547,-0.707106781186548,0.));
#484=DIRECTION('',(0.,0.,1.));
#485=DIRECTION('',(-0.707106781186547,0.707106781186548,0.));
#486=DIRECTION('',(-0.707106781186548,-0.707106781186547,0.));
#487=DIRECTION('',(0.707106781186547,-0.707106781186548,0.));
#488=DIRECTION('',(1.,0.,0.));
#489=DIRECTION('',(0.,0.,1.));
#490=DIRECTION('',(-1.,0.,0.));
#491=DIRECTION('',(0.,-1.,0.));
#492=DIRECTION('',(1.,0.,0.));
#493=DIRECTION('',(2.14163392095902E-16,1.,0.));
#494=DIRECTION('',(0.,0.,1.));
#495=DIRECTION('',(-2.14163392095902E-16,-1.,0.));
#496=DIRECTION('',(1.,-2.14163392095902E-16,0.));
#497=DIRECTION('',(2.14238349283136E-16,1.,0.));
#498=DIRECTION('',(1.,2.03287907341032E-16,0.));
#499=DIRECTION('',(0.,0.,-1.));
#500=DIRECTION('',(1.,0.,0.));
#501=DIRECTION('',(-1.,-6.7762635780344E-17,-3.99311660126411E-12));
#502=DIRECTION('',(0.,-1.,0.));
#503=DIRECTION('',(1.,0.,0.));
#504=DIRECTION('',(0.,-5.65240624300035E-17,1.));
#505=DIRECTION('',(1.,0.,0.));
#506=CARTESIAN_POINT('',(0.,0.,0.));
#507=CARTESIAN_POINT('CS1',(0.,0.,0.));
#508=CARTESIAN_POINT('CS2',(0.,0.,0.));
#509=CARTESIAN_POINT('',(3.95,-6.5,5.95));
#510=CARTESIAN_POINT('',(5.24,-6.5,5.95));
#511=CARTESIAN_POINT('',(3.95,-6.5,0.));
#512=CARTESIAN_POINT('',(5.24,-6.5,0.));
#513=CARTESIAN_POINT('',(3.94999999999999,-6.5,5.95));
#514=CARTESIAN_POINT('',(9.65,-3.75,4.70000000001278));
#515=CARTESIAN_POINT('',(9.65,-3.75,4.70000000001278));
#516=CARTESIAN_POINT('',(7.65,-3.75,4.70000000001278));
#517=CARTESIAN_POINT('',(9.65,-1.35,4.70000000001278));
#518=CARTESIAN_POINT('',(9.65,-1.35,4.70000000001278));
#519=CARTESIAN_POINT('',(7.65,-1.35,4.70000000001278));
#520=CARTESIAN_POINT('',(7.65,-1.35,4.70000000001278));
#521=CARTESIAN_POINT('',(7.65,-3.75,4.70000000001278));
#522=CARTESIAN_POINT('',(7.65,-3.75,4.70000000001278));
#523=CARTESIAN_POINT('',(7.65,-3.75,1.25000000001278));
#524=CARTESIAN_POINT('',(7.65,-3.75,1.25000000001278));
#525=CARTESIAN_POINT('',(9.65,-3.75,1.25000000001278));
#526=CARTESIAN_POINT('',(9.65,-3.75,1.25000000001278));
#527=CARTESIAN_POINT('',(7.65,-3.75,1.25000000001278));
#528=CARTESIAN_POINT('',(7.65,-3.75,1.1250000000115));
#529=CARTESIAN_POINT('',(7.65,-1.35,1.25000000001278));
#530=CARTESIAN_POINT('',(7.65,-1.35,1.25000000001278));
#531=CARTESIAN_POINT('',(7.65,-1.35,1.25000000001278));
#532=CARTESIAN_POINT('',(7.65,-1.35,1.1250000000115));
#533=CARTESIAN_POINT('',(9.65,-1.35,1.25000000001278));
#534=CARTESIAN_POINT('',(9.65,-1.35,1.25000000001278));
#535=CARTESIAN_POINT('',(9.65,-3.75,1.25000000001278));
#536=CARTESIAN_POINT('',(7.65,-1.35,1.25000000001278));
#537=CARTESIAN_POINT('',(9.65,-1.35,0.));
#538=CARTESIAN_POINT('',(9.65,-1.35,0.));
#539=CARTESIAN_POINT('',(9.65,-1.35,0.));
#540=CARTESIAN_POINT('',(9.65,0.,0.));
#541=CARTESIAN_POINT('',(9.65,0.,0.));
#542=CARTESIAN_POINT('',(9.65,0.,5.95));
#543=CARTESIAN_POINT('',(9.65,0.,5.95));
#544=CARTESIAN_POINT('',(9.65,-1.35,5.95));
#545=CARTESIAN_POINT('',(9.65,-1.35,4.70000000001278));
#546=CARTESIAN_POINT('',(9.65,-3.75,0.));
#547=CARTESIAN_POINT('',(9.65,0.,0.));
#548=CARTESIAN_POINT('',(5.95,0.,0.));
#549=CARTESIAN_POINT('',(5.95,0.,0.));
#550=CARTESIAN_POINT('',(5.95,0.,5.95));
#551=CARTESIAN_POINT('',(5.95,0.,5.95));
#552=CARTESIAN_POINT('',(9.65,0.,0.));
#553=CARTESIAN_POINT('',(5.95,0.,0.));
#554=CARTESIAN_POINT('',(5.95,4.5,0.));
#555=CARTESIAN_POINT('',(5.95,4.5,5.95));
#556=CARTESIAN_POINT('',(5.95,4.5,5.95));
#557=CARTESIAN_POINT('',(5.95,4.5,5.95));
#558=CARTESIAN_POINT('',(5.95,0.,0.));
#559=CARTESIAN_POINT('',(5.95,4.5,0.));
#560=CARTESIAN_POINT('',(3.3,4.5,0.));
#561=CARTESIAN_POINT('',(3.3,4.5,0.));
#562=CARTESIAN_POINT('',(3.3,4.5,5.95));
#563=CARTESIAN_POINT('',(3.3,4.5,5.95));
#564=CARTESIAN_POINT('',(5.95,4.5,0.));
#565=CARTESIAN_POINT('',(3.3,4.5,0.));
#566=CARTESIAN_POINT('',(3.,0.,0.));
#567=CARTESIAN_POINT('',(3.,0.,0.));
#568=CARTESIAN_POINT('',(3.,0.,5.95));
#569=CARTESIAN_POINT('',(3.,0.,5.95));
#570=CARTESIAN_POINT('',(3.3,4.5,0.));
#571=CARTESIAN_POINT('',(3.,0.,0.));
#572=CARTESIAN_POINT('',(0.,0.,0.));
#573=CARTESIAN_POINT('',(0.,0.,0.));
#574=CARTESIAN_POINT('',(0.,0.,5.95));
#575=CARTESIAN_POINT('',(0.,0.,5.95));
#576=CARTESIAN_POINT('',(3.,0.,0.));
#577=CARTESIAN_POINT('',(0.,0.,0.));
#578=CARTESIAN_POINT('',(0.,-5.70710678118655,0.));
#579=CARTESIAN_POINT('',(0.,-5.70710678118655,0.));
#580=CARTESIAN_POINT('',(0.,-5.70710678118655,5.95));
#581=CARTESIAN_POINT('',(0.,-5.70710678118655,5.95));
#582=CARTESIAN_POINT('',(0.,0.,0.));
#583=CARTESIAN_POINT('',(0.,-5.70710678118655,0.));
#584=CARTESIAN_POINT('',(3.74289321881345,-9.45,0.));
#585=CARTESIAN_POINT('',(3.74289321881345,-9.45,0.));
#586=CARTESIAN_POINT('',(3.74289321881345,-9.45,5.95));
#587=CARTESIAN_POINT('',(3.74289321881345,-9.45,5.95));
#588=CARTESIAN_POINT('',(0.,-5.70710678118655,0.));
#589=CARTESIAN_POINT('',(3.74289321881345,-9.45,0.));
#590=CARTESIAN_POINT('',(6.45,-9.45,0.));
#591=CARTESIAN_POINT('',(6.45,-9.45,0.));
#592=CARTESIAN_POINT('',(6.45,-9.45,5.95));
#593=CARTESIAN_POINT('',(6.45,-9.45,5.95));
#594=CARTESIAN_POINT('',(3.74289321881345,-9.45,0.));
#595=CARTESIAN_POINT('',(6.45,-9.45,0.));
#596=CARTESIAN_POINT('',(6.45,-1.35,0.));
#597=CARTESIAN_POINT('',(6.45,-1.35,0.));
#598=CARTESIAN_POINT('',(6.45,-1.35,5.95));
#599=CARTESIAN_POINT('',(6.45,-1.35,5.95));
#600=CARTESIAN_POINT('',(6.45,-9.45,0.));
#601=CARTESIAN_POINT('',(6.45,-1.35,0.));
#602=CARTESIAN_POINT('',(-0.4825,5.1975,0.));
#603=CARTESIAN_POINT('',(9.65,-1.35,5.95000000001278));
#604=CARTESIAN_POINT('',(6.35,-1.35,-0.1));
#605=CARTESIAN_POINT('',(-0.4825,-10.1475,5.95));
#606=MECHANICAL_DESIGN_GEOMETRIC_PRESENTATION_REPRESENTATION('',(#387,#388,
#389),#607);
#607=(
GEOMETRIC_REPRESENTATION_CONTEXT(3)
GLOBAL_UNCERTAINTY_ASSIGNED_CONTEXT((#608))
GLOBAL_UNIT_ASSIGNED_CONTEXT((#614,#610,#609))
REPRESENTATION_CONTEXT('100124054ugm000_b','TOP_LEVEL_ASSEMBLY_PART')
);
#608=UNCERTAINTY_MEASURE_WITH_UNIT(LENGTH_MEASURE(2.E-5),#614,
'DISTANCE_ACCURACY_VALUE','Maximum Tolerance applied to model');
#609=(
NAMED_UNIT(*)
SI_UNIT($,.STERADIAN.)
SOLID_ANGLE_UNIT()
);
#610=(
CONVERSION_BASED_UNIT('DEGREE',#612)
NAMED_UNIT(#611)
PLANE_ANGLE_UNIT()
);
#611=DIMENSIONAL_EXPONENTS(0.,0.,0.,0.,0.,0.,0.);
#612=PLANE_ANGLE_MEASURE_WITH_UNIT(PLANE_ANGLE_MEASURE(0.0174532925),#613);
#613=(
NAMED_UNIT(*)
PLANE_ANGLE_UNIT()
SI_UNIT($,.RADIAN.)
);
#614=(
LENGTH_UNIT()
NAMED_UNIT(*)
SI_UNIT(.MILLI.,.METRE.)
);
ENDSEC;
END-ISO-10303-21;
