ISO-10303-21;
HEADER;
/* Generated by software containing ST-Developer
 * from STEP Tools, Inc. (www.steptools.com) 
 */
/* OPTION: using custom schema-name function */

FILE_DESCRIPTION(
/* description */ (''),
/* implementation_level */ '2;1');

FILE_NAME(
/* name */ '100124058ugm000_b.stp',
/* time_stamp */ '2016-09-28T11:32:44+02:00',
/* author */ (''),
/* organization */ (''),
/* preprocessor_version */ 'ST-DEVELOPER v16',
/* originating_system */ 'SIEMENS PLM Software NX 10.0',
/* authorisation */ '');

FILE_SCHEMA (('AUTOMOTIVE_DESIGN { 1 0 10303 214 3 1 1 1 }'));
ENDSEC;

DATA;
#10=GEOMETRICALLY_BOUNDED_WIREFRAME_SHAPE_REPRESENTATION(
'100124058ugm000_b-None',(#33),#541);
#11=PROPERTY_DEFINITION_REPRESENTATION(#15,#13);
#12=PROPERTY_DEFINITION_REPRESENTATION(#16,#14);
#13=REPRESENTATION('',(#17),#541);
#14=REPRESENTATION('',(#18),#541);
#15=PROPERTY_DEFINITION('pmi validation property','',#23);
#16=PROPERTY_DEFINITION('pmi validation property','',#23);
#17=VALUE_REPRESENTATION_ITEM('number of annotations',COUNT_MEASURE(0.));
#18=VALUE_REPRESENTATION_ITEM('number of views',COUNT_MEASURE(0.));
#19=SHAPE_REPRESENTATION_RELATIONSHIP('None',
'relationship between 100124058ugm000_b-None and 100124058ugm000_b-Non
e',#32,#21);
#20=SHAPE_REPRESENTATION_RELATIONSHIP('None',
'relationship between 100124058ugm000_b-None and 100124058ugm000_b-Non
e',#32,#10);
#21=ADVANCED_BREP_SHAPE_REPRESENTATION('100124058ugm000_b-None',(#39),#541);
#22=SHAPE_DEFINITION_REPRESENTATION(#23,#32);
#23=PRODUCT_DEFINITION_SHAPE('','',#24);
#24=PRODUCT_DEFINITION(' ','',#26,#25);
#25=PRODUCT_DEFINITION_CONTEXT('part definition',#31,'design');
#26=PRODUCT_DEFINITION_FORMATION_WITH_SPECIFIED_SOURCE(' ',' ',#28,
 .NOT_KNOWN.);
#27=PRODUCT_RELATED_PRODUCT_CATEGORY('part','',(#28));
#28=PRODUCT('100124058ugm000_b','100124058ugm000_b',' ',(#29));
#29=PRODUCT_CONTEXT(' ',#31,'mechanical');
#30=APPLICATION_PROTOCOL_DEFINITION('international standard',
'automotive_design',2010,#31);
#31=APPLICATION_CONTEXT(
'core data for automotive mechanical design processes');
#32=SHAPE_REPRESENTATION('100124058ugm000_b-None',(#356),#541);
#33=GEOMETRIC_CURVE_SET('None',(#453,#454));
#34=SURFACE_STYLE_USAGE(.BOTH.,#35);
#35=SURFACE_SIDE_STYLE('',(#36));
#36=SURFACE_STYLE_FILL_AREA(#37);
#37=FILL_AREA_STYLE('',(#38));
#38=FILL_AREA_STYLE_COLOUR('',#342);
#39=MANIFOLD_SOLID_BREP('',#40);
#40=CLOSED_SHELL('',(#147,#148,#149,#150,#151,#152,#153,#154,#155,#156,
#157,#158,#159,#160,#161,#162));
#41=PLANE('',#360);
#42=PLANE('',#361);
#43=PLANE('',#362);
#44=PLANE('',#363);
#45=PLANE('',#364);
#46=PLANE('',#365);
#47=PLANE('',#366);
#48=PLANE('',#367);
#49=PLANE('',#368);
#50=PLANE('',#369);
#51=PLANE('',#370);
#52=PLANE('',#371);
#53=PLANE('',#372);
#54=PLANE('',#373);
#55=PLANE('',#374);
#56=FACE_OUTER_BOUND('',#172,.T.);
#57=FACE_OUTER_BOUND('',#173,.T.);
#58=FACE_OUTER_BOUND('',#174,.T.);
#59=FACE_OUTER_BOUND('',#175,.T.);
#60=FACE_OUTER_BOUND('',#176,.T.);
#61=FACE_OUTER_BOUND('',#177,.T.);
#62=FACE_OUTER_BOUND('',#178,.T.);
#63=FACE_OUTER_BOUND('',#181,.T.);
#64=FACE_OUTER_BOUND('',#182,.T.);
#65=FACE_OUTER_BOUND('',#183,.T.);
#66=FACE_OUTER_BOUND('',#184,.T.);
#67=FACE_OUTER_BOUND('',#185,.T.);
#68=FACE_OUTER_BOUND('',#186,.T.);
#69=LINE('',#460,#108);
#70=LINE('',#463,#109);
#71=LINE('',#465,#110);
#72=LINE('',#467,#111);
#73=LINE('',#469,#112);
#74=LINE('',#471,#113);
#75=LINE('',#473,#114);
#76=LINE('',#475,#115);
#77=LINE('',#477,#116);
#78=LINE('',#479,#117);
#79=LINE('',#481,#118);
#80=LINE('',#483,#119);
#81=LINE('',#485,#120);
#82=LINE('',#487,#121);
#83=LINE('',#489,#122);
#84=LINE('',#491,#123);
#85=LINE('',#493,#124);
#86=LINE('',#495,#125);
#87=LINE('',#497,#126);
#88=LINE('',#499,#127);
#89=LINE('',#501,#128);
#90=LINE('',#503,#129);
#91=LINE('',#505,#130);
#92=LINE('',#507,#131);
#93=LINE('',#509,#132);
#94=LINE('',#512,#133);
#95=LINE('',#514,#134);
#96=LINE('',#516,#135);
#97=LINE('',#518,#136);
#98=LINE('',#521,#137);
#99=LINE('',#522,#138);
#100=LINE('',#524,#139);
#101=LINE('',#525,#140);
#102=LINE('',#527,#141);
#103=LINE('',#529,#142);
#104=LINE('',#531,#143);
#105=LINE('',#533,#144);
#106=LINE('',#535,#145);
#107=LINE('',#537,#146);
#108=VECTOR('',#383,1.);
#109=VECTOR('',#384,1.);
#110=VECTOR('',#385,1.);
#111=VECTOR('',#386,1.);
#112=VECTOR('',#389,1.);
#113=VECTOR('',#390,1.);
#114=VECTOR('',#391,1.);
#115=VECTOR('',#394,1.);
#116=VECTOR('',#395,1.);
#117=VECTOR('',#396,1.);
#118=VECTOR('',#399,1.);
#119=VECTOR('',#400,1.);
#120=VECTOR('',#401,1.);
#121=VECTOR('',#404,1.);
#122=VECTOR('',#405,1.);
#123=VECTOR('',#406,1.);
#124=VECTOR('',#409,1.);
#125=VECTOR('',#410,1.);
#126=VECTOR('',#411,1.);
#127=VECTOR('',#414,1.);
#128=VECTOR('',#415,1.);
#129=VECTOR('',#416,1.);
#130=VECTOR('',#419,1.);
#131=VECTOR('',#420,1.);
#132=VECTOR('',#423,1.);
#133=VECTOR('',#424,1.);
#134=VECTOR('',#425,1.);
#135=VECTOR('',#426,1.);
#136=VECTOR('',#429,1.);
#137=VECTOR('',#430,1.);
#138=VECTOR('',#431,1.);
#139=VECTOR('',#432,1.);
#140=VECTOR('',#433,1.);
#141=VECTOR('',#436,1.);
#142=VECTOR('',#437,1.);
#143=VECTOR('',#440,1.);
#144=VECTOR('',#441,1.);
#145=VECTOR('',#444,1.);
#146=VECTOR('',#447,1.);
#147=ADVANCED_FACE('',(#164,#165),#163,.F.);
#148=ADVANCED_FACE('',(#56),#41,.T.);
#149=ADVANCED_FACE('',(#57),#42,.T.);
#150=ADVANCED_FACE('',(#58),#43,.T.);
#151=ADVANCED_FACE('',(#59),#44,.T.);
#152=ADVANCED_FACE('',(#60),#45,.T.);
#153=ADVANCED_FACE('',(#61),#46,.T.);
#154=ADVANCED_FACE('',(#62),#47,.T.);
#155=ADVANCED_FACE('',(#166,#167),#48,.T.);
#156=ADVANCED_FACE('',(#63),#49,.T.);
#157=ADVANCED_FACE('',(#64),#50,.T.);
#158=ADVANCED_FACE('',(#65),#51,.F.);
#159=ADVANCED_FACE('',(#66),#52,.T.);
#160=ADVANCED_FACE('',(#67),#53,.F.);
#161=ADVANCED_FACE('',(#68),#54,.T.);
#162=ADVANCED_FACE('',(#168,#169),#55,.T.);
#163=CYLINDRICAL_SURFACE('',#359,1.29);
#164=FACE_BOUND('',#170,.T.);
#165=FACE_BOUND('',#171,.T.);
#166=FACE_BOUND('',#179,.T.);
#167=FACE_BOUND('',#180,.T.);
#168=FACE_BOUND('',#187,.T.);
#169=FACE_BOUND('',#188,.T.);
#170=EDGE_LOOP('',(#189));
#171=EDGE_LOOP('',(#190));
#172=EDGE_LOOP('',(#191,#192,#193,#194));
#173=EDGE_LOOP('',(#195,#196,#197,#198));
#174=EDGE_LOOP('',(#199,#200,#201,#202));
#175=EDGE_LOOP('',(#203,#204,#205,#206));
#176=EDGE_LOOP('',(#207,#208,#209,#210));
#177=EDGE_LOOP('',(#211,#212,#213,#214));
#178=EDGE_LOOP('',(#215,#216,#217,#218));
#179=EDGE_LOOP('',(#219));
#180=EDGE_LOOP('',(#220,#221,#222,#223,#224,#225,#226,#227,#228));
#181=EDGE_LOOP('',(#229,#230,#231,#232));
#182=EDGE_LOOP('',(#233,#234,#235,#236,#237,#238,#239,#240));
#183=EDGE_LOOP('',(#241,#242,#243,#244));
#184=EDGE_LOOP('',(#245,#246,#247,#248));
#185=EDGE_LOOP('',(#249,#250,#251,#252));
#186=EDGE_LOOP('',(#253,#254,#255,#256,#257,#258,#259,#260));
#187=EDGE_LOOP('',(#261));
#188=EDGE_LOOP('',(#262,#263,#264,#265,#266,#267,#268,#269,#270));
#189=ORIENTED_EDGE('',*,*,#299,.T.);
#190=ORIENTED_EDGE('',*,*,#300,.T.);
#191=ORIENTED_EDGE('',*,*,#301,.T.);
#192=ORIENTED_EDGE('',*,*,#302,.T.);
#193=ORIENTED_EDGE('',*,*,#303,.T.);
#194=ORIENTED_EDGE('',*,*,#304,.F.);
#195=ORIENTED_EDGE('',*,*,#305,.T.);
#196=ORIENTED_EDGE('',*,*,#306,.T.);
#197=ORIENTED_EDGE('',*,*,#307,.T.);
#198=ORIENTED_EDGE('',*,*,#302,.F.);
#199=ORIENTED_EDGE('',*,*,#308,.T.);
#200=ORIENTED_EDGE('',*,*,#309,.T.);
#201=ORIENTED_EDGE('',*,*,#310,.T.);
#202=ORIENTED_EDGE('',*,*,#306,.F.);
#203=ORIENTED_EDGE('',*,*,#311,.T.);
#204=ORIENTED_EDGE('',*,*,#312,.T.);
#205=ORIENTED_EDGE('',*,*,#313,.T.);
#206=ORIENTED_EDGE('',*,*,#309,.F.);
#207=ORIENTED_EDGE('',*,*,#314,.T.);
#208=ORIENTED_EDGE('',*,*,#315,.T.);
#209=ORIENTED_EDGE('',*,*,#316,.T.);
#210=ORIENTED_EDGE('',*,*,#312,.F.);
#211=ORIENTED_EDGE('',*,*,#317,.T.);
#212=ORIENTED_EDGE('',*,*,#318,.T.);
#213=ORIENTED_EDGE('',*,*,#319,.T.);
#214=ORIENTED_EDGE('',*,*,#315,.F.);
#215=ORIENTED_EDGE('',*,*,#320,.T.);
#216=ORIENTED_EDGE('',*,*,#321,.T.);
#217=ORIENTED_EDGE('',*,*,#322,.T.);
#218=ORIENTED_EDGE('',*,*,#318,.F.);
#219=ORIENTED_EDGE('',*,*,#300,.F.);
#220=ORIENTED_EDGE('',*,*,#323,.F.);
#221=ORIENTED_EDGE('',*,*,#320,.F.);
#222=ORIENTED_EDGE('',*,*,#317,.F.);
#223=ORIENTED_EDGE('',*,*,#314,.F.);
#224=ORIENTED_EDGE('',*,*,#311,.F.);
#225=ORIENTED_EDGE('',*,*,#308,.F.);
#226=ORIENTED_EDGE('',*,*,#305,.F.);
#227=ORIENTED_EDGE('',*,*,#301,.F.);
#228=ORIENTED_EDGE('',*,*,#324,.F.);
#229=ORIENTED_EDGE('',*,*,#325,.T.);
#230=ORIENTED_EDGE('',*,*,#326,.T.);
#231=ORIENTED_EDGE('',*,*,#327,.T.);
#232=ORIENTED_EDGE('',*,*,#328,.T.);
#233=ORIENTED_EDGE('',*,*,#329,.T.);
#234=ORIENTED_EDGE('',*,*,#330,.T.);
#235=ORIENTED_EDGE('',*,*,#328,.F.);
#236=ORIENTED_EDGE('',*,*,#331,.T.);
#237=ORIENTED_EDGE('',*,*,#332,.T.);
#238=ORIENTED_EDGE('',*,*,#324,.T.);
#239=ORIENTED_EDGE('',*,*,#304,.T.);
#240=ORIENTED_EDGE('',*,*,#333,.T.);
#241=ORIENTED_EDGE('',*,*,#334,.F.);
#242=ORIENTED_EDGE('',*,*,#331,.F.);
#243=ORIENTED_EDGE('',*,*,#327,.F.);
#244=ORIENTED_EDGE('',*,*,#335,.F.);
#245=ORIENTED_EDGE('',*,*,#336,.T.);
#246=ORIENTED_EDGE('',*,*,#337,.F.);
#247=ORIENTED_EDGE('',*,*,#335,.T.);
#248=ORIENTED_EDGE('',*,*,#326,.F.);
#249=ORIENTED_EDGE('',*,*,#325,.F.);
#250=ORIENTED_EDGE('',*,*,#330,.F.);
#251=ORIENTED_EDGE('',*,*,#338,.F.);
#252=ORIENTED_EDGE('',*,*,#336,.F.);
#253=ORIENTED_EDGE('',*,*,#338,.T.);
#254=ORIENTED_EDGE('',*,*,#329,.F.);
#255=ORIENTED_EDGE('',*,*,#339,.T.);
#256=ORIENTED_EDGE('',*,*,#321,.F.);
#257=ORIENTED_EDGE('',*,*,#323,.T.);
#258=ORIENTED_EDGE('',*,*,#332,.F.);
#259=ORIENTED_EDGE('',*,*,#334,.T.);
#260=ORIENTED_EDGE('',*,*,#337,.T.);
#261=ORIENTED_EDGE('',*,*,#299,.F.);
#262=ORIENTED_EDGE('',*,*,#339,.F.);
#263=ORIENTED_EDGE('',*,*,#333,.F.);
#264=ORIENTED_EDGE('',*,*,#303,.F.);
#265=ORIENTED_EDGE('',*,*,#307,.F.);
#266=ORIENTED_EDGE('',*,*,#310,.F.);
#267=ORIENTED_EDGE('',*,*,#313,.F.);
#268=ORIENTED_EDGE('',*,*,#316,.F.);
#269=ORIENTED_EDGE('',*,*,#319,.F.);
#270=ORIENTED_EDGE('',*,*,#322,.F.);
#271=VERTEX_POINT('',#456);
#272=VERTEX_POINT('',#458);
#273=VERTEX_POINT('',#461);
#274=VERTEX_POINT('',#462);
#275=VERTEX_POINT('',#464);
#276=VERTEX_POINT('',#466);
#277=VERTEX_POINT('',#470);
#278=VERTEX_POINT('',#472);
#279=VERTEX_POINT('',#476);
#280=VERTEX_POINT('',#478);
#281=VERTEX_POINT('',#482);
#282=VERTEX_POINT('',#484);
#283=VERTEX_POINT('',#488);
#284=VERTEX_POINT('',#490);
#285=VERTEX_POINT('',#494);
#286=VERTEX_POINT('',#496);
#287=VERTEX_POINT('',#500);
#288=VERTEX_POINT('',#502);
#289=VERTEX_POINT('',#506);
#290=VERTEX_POINT('',#510);
#291=VERTEX_POINT('',#511);
#292=VERTEX_POINT('',#513);
#293=VERTEX_POINT('',#515);
#294=VERTEX_POINT('',#519);
#295=VERTEX_POINT('',#520);
#296=VERTEX_POINT('',#523);
#297=VERTEX_POINT('',#528);
#298=VERTEX_POINT('',#532);
#299=EDGE_CURVE('',#271,#271,#340,.T.);
#300=EDGE_CURVE('',#272,#272,#341,.T.);
#301=EDGE_CURVE('',#273,#274,#69,.T.);
#302=EDGE_CURVE('',#274,#275,#70,.T.);
#303=EDGE_CURVE('',#275,#276,#71,.T.);
#304=EDGE_CURVE('',#273,#276,#72,.T.);
#305=EDGE_CURVE('',#274,#277,#73,.T.);
#306=EDGE_CURVE('',#277,#278,#74,.T.);
#307=EDGE_CURVE('',#278,#275,#75,.T.);
#308=EDGE_CURVE('',#277,#279,#76,.T.);
#309=EDGE_CURVE('',#279,#280,#77,.T.);
#310=EDGE_CURVE('',#280,#278,#78,.T.);
#311=EDGE_CURVE('',#279,#281,#79,.T.);
#312=EDGE_CURVE('',#281,#282,#80,.T.);
#313=EDGE_CURVE('',#282,#280,#81,.T.);
#314=EDGE_CURVE('',#281,#283,#82,.T.);
#315=EDGE_CURVE('',#283,#284,#83,.T.);
#316=EDGE_CURVE('',#284,#282,#84,.T.);
#317=EDGE_CURVE('',#283,#285,#85,.T.);
#318=EDGE_CURVE('',#285,#286,#86,.T.);
#319=EDGE_CURVE('',#286,#284,#87,.T.);
#320=EDGE_CURVE('',#285,#287,#88,.T.);
#321=EDGE_CURVE('',#287,#288,#89,.T.);
#322=EDGE_CURVE('',#288,#286,#90,.T.);
#323=EDGE_CURVE('',#287,#289,#91,.T.);
#324=EDGE_CURVE('',#289,#273,#92,.T.);
#325=EDGE_CURVE('',#290,#291,#93,.T.);
#326=EDGE_CURVE('',#291,#292,#94,.T.);
#327=EDGE_CURVE('',#292,#293,#95,.T.);
#328=EDGE_CURVE('',#293,#290,#96,.T.);
#329=EDGE_CURVE('',#294,#295,#97,.T.);
#330=EDGE_CURVE('',#295,#290,#98,.T.);
#331=EDGE_CURVE('',#293,#296,#99,.T.);
#332=EDGE_CURVE('',#296,#289,#100,.T.);
#333=EDGE_CURVE('',#276,#294,#101,.T.);
#334=EDGE_CURVE('',#296,#297,#102,.T.);
#335=EDGE_CURVE('',#297,#292,#103,.T.);
#336=EDGE_CURVE('',#291,#298,#104,.T.);
#337=EDGE_CURVE('',#297,#298,#105,.T.);
#338=EDGE_CURVE('',#298,#295,#106,.T.);
#339=EDGE_CURVE('',#294,#288,#107,.T.);
#340=CIRCLE('',#357,1.29);
#341=CIRCLE('',#358,1.29);
#342=COLOUR_RGB('ORANGE',1.,0.329991607537957,0.);
#343=PRESENTATION_LAYER_ASSIGNMENT('130','Layer 130',(#453,#454));
#344=PRESENTATION_LAYER_ASSIGNMENT('1','Layer 1',(#39));
#345=STYLED_ITEM('',(#348),#453);
#346=STYLED_ITEM('',(#349),#454);
#347=STYLED_ITEM('',(#350),#39);
#348=PRESENTATION_STYLE_ASSIGNMENT((#351));
#349=PRESENTATION_STYLE_ASSIGNMENT((#352));
#350=PRESENTATION_STYLE_ASSIGNMENT((#34));
#351=POINT_STYLE('',#353,POSITIVE_LENGTH_MEASURE(3.),#355);
#352=POINT_STYLE('',#354,POSITIVE_LENGTH_MEASURE(3.),#342);
#353=PRE_DEFINED_POINT_MARKER_SYMBOL('plus');
#354=PRE_DEFINED_POINT_MARKER_SYMBOL('plus');
#355=DRAUGHTING_PRE_DEFINED_COLOUR('yellow');
#356=AXIS2_PLACEMENT_3D('',#452,#375,#376);
#357=AXIS2_PLACEMENT_3D('',#455,#377,#378);
#358=AXIS2_PLACEMENT_3D('',#457,#379,#380);
#359=AXIS2_PLACEMENT_3D('',#459,#381,#382);
#360=AXIS2_PLACEMENT_3D('',#468,#387,#388);
#361=AXIS2_PLACEMENT_3D('',#474,#392,#393);
#362=AXIS2_PLACEMENT_3D('',#480,#397,#398);
#363=AXIS2_PLACEMENT_3D('',#486,#402,#403);
#364=AXIS2_PLACEMENT_3D('',#492,#407,#408);
#365=AXIS2_PLACEMENT_3D('',#498,#412,#413);
#366=AXIS2_PLACEMENT_3D('',#504,#417,#418);
#367=AXIS2_PLACEMENT_3D('',#508,#421,#422);
#368=AXIS2_PLACEMENT_3D('',#517,#427,#428);
#369=AXIS2_PLACEMENT_3D('',#526,#434,#435);
#370=AXIS2_PLACEMENT_3D('',#530,#438,#439);
#371=AXIS2_PLACEMENT_3D('',#534,#442,#443);
#372=AXIS2_PLACEMENT_3D('',#536,#445,#446);
#373=AXIS2_PLACEMENT_3D('',#538,#448,#449);
#374=AXIS2_PLACEMENT_3D('',#539,#450,#451);
#375=DIRECTION('',(0.,0.,1.));
#376=DIRECTION('',(1.,0.,0.));
#377=DIRECTION('',(-5.0568028450196E-16,0.,1.));
#378=DIRECTION('',(1.,0.,6.72373440301086E-16));
#379=DIRECTION('',(0.,0.,-1.));
#380=DIRECTION('',(1.,0.,0.));
#381=DIRECTION('',(0.,0.,-1.));
#382=DIRECTION('',(1.,0.,0.));
#383=DIRECTION('',(-1.,0.,0.));
#384=DIRECTION('',(0.,0.,1.));
#385=DIRECTION('',(1.,0.,0.));
#386=DIRECTION('',(0.,0.,1.));
#387=DIRECTION('',(0.,1.,0.));
#388=DIRECTION('',(-1.,0.,0.));
#389=DIRECTION('',(-0.0665190105237739,0.997785157856609,0.));
#390=DIRECTION('',(0.,0.,1.));
#391=DIRECTION('',(0.0665190105237739,-0.997785157856609,0.));
#392=DIRECTION('',(0.997785157856609,0.0665190105237739,0.));
#393=DIRECTION('',(-0.0665190105237739,0.997785157856609,0.));
#394=DIRECTION('',(-1.,0.,0.));
#395=DIRECTION('',(0.,0.,1.));
#396=DIRECTION('',(1.,0.,0.));
#397=DIRECTION('',(0.,1.,0.));
#398=DIRECTION('',(-1.,0.,0.));
#399=DIRECTION('',(-1.12975947996995E-17,-1.,0.));
#400=DIRECTION('',(0.,0.,1.));
#401=DIRECTION('',(1.12975947996995E-17,1.,0.));
#402=DIRECTION('',(-1.,1.12975947996995E-17,0.));
#403=DIRECTION('',(-1.12975947996995E-17,-1.,0.));
#404=DIRECTION('',(0.707106781186548,-0.707106781186547,0.));
#405=DIRECTION('',(0.,0.,1.));
#406=DIRECTION('',(-0.707106781186548,0.707106781186547,0.));
#407=DIRECTION('',(-0.707106781186547,-0.707106781186548,0.));
#408=DIRECTION('',(0.707106781186548,-0.707106781186547,0.));
#409=DIRECTION('',(1.,8.33236779387022E-12,0.));
#410=DIRECTION('',(0.,0.,1.));
#411=DIRECTION('',(-1.,-8.33236779387022E-12,0.));
#412=DIRECTION('',(8.33236779387022E-12,-1.,0.));
#413=DIRECTION('',(1.,8.33236778186031E-12,0.));
#414=DIRECTION('',(2.14163392095902E-16,1.,0.));
#415=DIRECTION('',(0.,0.,1.));
#416=DIRECTION('',(-2.14163392095902E-16,-1.,0.));
#417=DIRECTION('',(1.,-2.14163392095902E-16,0.));
#418=DIRECTION('',(2.14238349283136E-16,1.,0.));
#419=DIRECTION('',(1.,1.62006909623647E-12,0.));
#420=DIRECTION('',(0.,1.,0.));
#421=DIRECTION('',(0.,0.,-1.));
#422=DIRECTION('',(1.,0.,0.));
#423=DIRECTION('',(-1.,0.,0.));
#424=DIRECTION('',(-5.02818398833857E-16,1.00563679766771E-15,-1.));
#425=DIRECTION('',(1.,0.,0.));
#426=DIRECTION('',(5.02818398833857E-16,-5.02818398833857E-16,1.));
#427=DIRECTION('',(0.,-1.,4.68844182696434E-16));
#428=DIRECTION('',(1.,0.,0.));
#429=DIRECTION('',(0.,8.70831184940356E-13,-1.));
#430=DIRECTION('',(0.,-1.,0.));
#431=DIRECTION('',(0.,1.,0.));
#432=DIRECTION('',(0.,8.7152507433075E-13,-1.));
#433=DIRECTION('',(0.,-1.,0.));
#434=DIRECTION('',(1.,0.,0.));
#435=DIRECTION('',(0.,1.,0.));
#436=DIRECTION('',(-1.,0.,0.));
#437=DIRECTION('',(0.,-1.,0.));
#438=DIRECTION('',(0.,0.,1.));
#439=DIRECTION('',(0.,-1.,0.));
#440=DIRECTION('',(0.,1.,0.));
#441=DIRECTION('',(-2.51409199416928E-16,2.51409199416928E-16,1.));
#442=DIRECTION('',(-1.,3.61400724161835E-16,2.34422091348217E-16));
#443=DIRECTION('',(-3.61689844741164E-16,-1.,0.));
#444=DIRECTION('',(1.,0.,0.));
#445=DIRECTION('',(0.,0.,-1.));
#446=DIRECTION('',(0.,1.,0.));
#447=DIRECTION('',(-1.,-2.71050543121376E-16,0.));
#448=DIRECTION('',(8.43126630603434E-13,-1.,-5.76971848798465E-13));
#449=DIRECTION('',(1.,8.4312678366727E-13,0.));
#450=DIRECTION('',(0.,0.,1.));
#451=DIRECTION('',(1.,0.,0.));
#452=CARTESIAN_POINT('',(0.,0.,0.));
#453=CARTESIAN_POINT('CS1',(0.,0.,0.));
#454=CARTESIAN_POINT('CS2',(0.,0.,0.));
#455=CARTESIAN_POINT('',(3.95,-11.,5.95));
#456=CARTESIAN_POINT('',(5.24,-11.,5.95));
#457=CARTESIAN_POINT('',(3.95,-11.,0.));
#458=CARTESIAN_POINT('',(5.24,-11.,0.));
#459=CARTESIAN_POINT('',(3.95,-11.,5.95));
#460=CARTESIAN_POINT('',(9.65,-4.5,0.));
#461=CARTESIAN_POINT('',(9.65,-4.5,0.));
#462=CARTESIAN_POINT('',(2.95,-4.5,0.));
#463=CARTESIAN_POINT('',(2.95,-4.5,0.));
#464=CARTESIAN_POINT('',(2.95,-4.5,5.95));
#465=CARTESIAN_POINT('',(2.95,-4.5,5.95));
#466=CARTESIAN_POINT('',(9.65,-4.5,5.95));
#467=CARTESIAN_POINT('',(9.65,-4.5,0.));
#468=CARTESIAN_POINT('',(9.65,-4.5,0.));
#469=CARTESIAN_POINT('',(2.95,-4.5,0.));
#470=CARTESIAN_POINT('',(2.65,0.,0.));
#471=CARTESIAN_POINT('',(2.65,0.,0.));
#472=CARTESIAN_POINT('',(2.65,0.,5.95));
#473=CARTESIAN_POINT('',(2.65,0.,5.95));
#474=CARTESIAN_POINT('',(2.95,-4.5,0.));
#475=CARTESIAN_POINT('',(2.65,0.,0.));
#476=CARTESIAN_POINT('',(0.,0.,0.));
#477=CARTESIAN_POINT('',(0.,0.,0.));
#478=CARTESIAN_POINT('',(0.,0.,5.95));
#479=CARTESIAN_POINT('',(0.,0.,5.95));
#480=CARTESIAN_POINT('',(2.65,0.,0.));
#481=CARTESIAN_POINT('',(0.,0.,0.));
#482=CARTESIAN_POINT('',(-1.15315756491365E-16,-10.2071067812091,0.));
#483=CARTESIAN_POINT('',(-1.15315756491365E-16,-10.2071067812091,0.));
#484=CARTESIAN_POINT('',(-1.15315756491365E-16,-10.2071067812091,5.95));
#485=CARTESIAN_POINT('',(-1.15315756491365E-16,-10.2071067812091,5.95));
#486=CARTESIAN_POINT('',(0.,0.,0.));
#487=CARTESIAN_POINT('',(-1.15315756491365E-16,-10.2071067812091,0.));
#488=CARTESIAN_POINT('',(3.74289321881345,-13.9500000000226,0.));
#489=CARTESIAN_POINT('',(3.74289321881345,-13.9500000000226,0.));
#490=CARTESIAN_POINT('',(3.74289321881345,-13.9500000000226,5.95));
#491=CARTESIAN_POINT('',(3.74289321881345,-13.9500000000226,5.95));
#492=CARTESIAN_POINT('',(-1.15315756491365E-16,-10.2071067812091,0.));
#493=CARTESIAN_POINT('',(3.74289321881345,-13.9500000000226,0.));
#494=CARTESIAN_POINT('',(6.45,-13.95,0.));
#495=CARTESIAN_POINT('',(6.45,-13.95,0.));
#496=CARTESIAN_POINT('',(6.45,-13.95,5.95));
#497=CARTESIAN_POINT('',(6.45,-13.95,5.95));
#498=CARTESIAN_POINT('',(3.74289321881345,-13.9500000000226,0.));
#499=CARTESIAN_POINT('',(6.45,-13.95,0.));
#500=CARTESIAN_POINT('',(6.45,-5.85,0.));
#501=CARTESIAN_POINT('',(6.45,-5.85,0.));
#502=CARTESIAN_POINT('',(6.45,-5.85,5.95));
#503=CARTESIAN_POINT('',(6.45,-5.85,5.95));
#504=CARTESIAN_POINT('',(6.45,-13.95,0.));
#505=CARTESIAN_POINT('',(6.45,-5.85,0.));
#506=CARTESIAN_POINT('',(9.65,-5.84999999999482,0.));
#507=CARTESIAN_POINT('',(9.65,-5.84999999999482,0.));
#508=CARTESIAN_POINT('',(-0.4825,0.697500000001128,0.));
#509=CARTESIAN_POINT('',(9.65,-8.25,4.7));
#510=CARTESIAN_POINT('',(9.65,-8.25,4.7));
#511=CARTESIAN_POINT('',(7.65,-8.25,4.7));
#512=CARTESIAN_POINT('',(7.65000000000003,-8.25,4.7));
#513=CARTESIAN_POINT('',(7.65,-8.25,1.25));
#514=CARTESIAN_POINT('',(7.65,-8.25,1.25));
#515=CARTESIAN_POINT('',(9.65,-8.25,1.25));
#516=CARTESIAN_POINT('',(9.65,-8.25,1.25));
#517=CARTESIAN_POINT('',(7.65000000000003,-8.25,1.125));
#518=CARTESIAN_POINT('',(9.65,-5.85,5.95));
#519=CARTESIAN_POINT('',(9.65,-5.85,5.95));
#520=CARTESIAN_POINT('',(9.65,-5.84999999999891,4.7));
#521=CARTESIAN_POINT('',(9.65,-5.84999999999891,4.7));
#522=CARTESIAN_POINT('',(9.65,-8.25,1.25));
#523=CARTESIAN_POINT('',(9.65,-5.84999999999591,1.25));
#524=CARTESIAN_POINT('',(9.65,-5.84999999999591,1.25));
#525=CARTESIAN_POINT('',(9.65,-4.5,5.95));
#526=CARTESIAN_POINT('',(9.65,-8.25,0.));
#527=CARTESIAN_POINT('',(9.65,-5.84999999999591,1.25));
#528=CARTESIAN_POINT('',(7.65,-5.84999999999591,1.25));
#529=CARTESIAN_POINT('',(7.65,-5.84999999999591,1.25));
#530=CARTESIAN_POINT('',(7.65,-5.84999999999591,1.25));
#531=CARTESIAN_POINT('',(7.65,-8.25,4.7));
#532=CARTESIAN_POINT('',(7.65,-5.84999999999891,4.7));
#533=CARTESIAN_POINT('',(7.65000000000003,-5.85,1.25));
#534=CARTESIAN_POINT('',(7.65000000000003,-5.85,1.125));
#535=CARTESIAN_POINT('',(7.65,-5.84999999999891,4.7));
#536=CARTESIAN_POINT('',(7.65,-8.25,4.7));
#537=CARTESIAN_POINT('',(9.65,-5.85,5.95));
#538=CARTESIAN_POINT('',(6.35,-5.84999999999799,-0.1));
#539=CARTESIAN_POINT('',(-0.4825,-14.6475000000237,5.95));
#540=MECHANICAL_DESIGN_GEOMETRIC_PRESENTATION_REPRESENTATION('',(#345,#346,
#347),#541);
#541=(
GEOMETRIC_REPRESENTATION_CONTEXT(3)
GLOBAL_UNCERTAINTY_ASSIGNED_CONTEXT((#542))
GLOBAL_UNIT_ASSIGNED_CONTEXT((#548,#544,#543))
REPRESENTATION_CONTEXT('100124058ugm000_b','TOP_LEVEL_ASSEMBLY_PART')
);
#542=UNCERTAINTY_MEASURE_WITH_UNIT(LENGTH_MEASURE(2.E-5),#548,
'DISTANCE_ACCURACY_VALUE','Maximum Tolerance applied to model');
#543=(
NAMED_UNIT(*)
SI_UNIT($,.STERADIAN.)
SOLID_ANGLE_UNIT()
);
#544=(
CONVERSION_BASED_UNIT('DEGREE',#546)
NAMED_UNIT(#545)
PLANE_ANGLE_UNIT()
);
#545=DIMENSIONAL_EXPONENTS(0.,0.,0.,0.,0.,0.,0.);
#546=PLANE_ANGLE_MEASURE_WITH_UNIT(PLANE_ANGLE_MEASURE(0.0174532925),#547);
#547=(
NAMED_UNIT(*)
PLANE_ANGLE_UNIT()
SI_UNIT($,.RADIAN.)
);
#548=(
LENGTH_UNIT()
NAMED_UNIT(*)
SI_UNIT(.MILLI.,.METRE.)
);
ENDSEC;
END-ISO-10303-21;
