ISO-10303-21;
HEADER;
/* Generated by software containing ST-Developer
 * from STEP Tools, Inc. (www.steptools.com) 
 */
/* OPTION: using custom schema-name function */

FILE_DESCRIPTION(
/* description */ (''),
/* implementation_level */ '2;1');

FILE_NAME(
/* name */ '100193942ugm000_b.stp',
/* time_stamp */ '2016-09-28T10:48:41+02:00',
/* author */ (''),
/* organization */ (''),
/* preprocessor_version */ 'ST-DEVELOPER v16',
/* originating_system */ 'SIEMENS PLM Software NX 10.0',
/* authorisation */ '');

FILE_SCHEMA (('AUTOMOTIVE_DESIGN { 1 0 10303 214 3 1 1 1 }'));
ENDSEC;

DATA;
#10=PROPERTY_DEFINITION_REPRESENTATION(#14,#12);
#11=PROPERTY_DEFINITION_REPRESENTATION(#15,#13);
#12=REPRESENTATION('',(#16),#725);
#13=REPRESENTATION('',(#17),#725);
#14=PROPERTY_DEFINITION('pmi validation property','',#21);
#15=PROPERTY_DEFINITION('pmi validation property','',#21);
#16=VALUE_REPRESENTATION_ITEM('number of annotations',COUNT_MEASURE(0.));
#17=VALUE_REPRESENTATION_ITEM('number of views',COUNT_MEASURE(0.));
#18=SHAPE_REPRESENTATION_RELATIONSHIP('None',
'relationship between 100193942ugm000_b-None and 100193942ugm000_b-Non
e',#30,#19);
#19=ADVANCED_BREP_SHAPE_REPRESENTATION('100193942ugm000_b-None',(#40),#725);
#20=SHAPE_DEFINITION_REPRESENTATION(#21,#30);
#21=PRODUCT_DEFINITION_SHAPE('','',#22);
#22=PRODUCT_DEFINITION(' ','',#24,#23);
#23=PRODUCT_DEFINITION_CONTEXT('part definition',#29,'design');
#24=PRODUCT_DEFINITION_FORMATION_WITH_SPECIFIED_SOURCE(' ',' ',#26,
 .NOT_KNOWN.);
#25=PRODUCT_RELATED_PRODUCT_CATEGORY('part','',(#26));
#26=PRODUCT('100193942ugm000_b','100193942ugm000_b',' ',(#27));
#27=PRODUCT_CONTEXT(' ',#29,'mechanical');
#28=APPLICATION_PROTOCOL_DEFINITION('international standard',
'automotive_design',2010,#29);
#29=APPLICATION_CONTEXT(
'core data for automotive mechanical design processes');
#30=SHAPE_REPRESENTATION('100193942ugm000_b-None',(#468),#725);
#31=PRESENTATION_LAYER_ASSIGNMENT('1','Layer 1',(#40));
#32=STYLED_ITEM('',(#33),#40);
#33=PRESENTATION_STYLE_ASSIGNMENT((#34));
#34=SURFACE_STYLE_USAGE(.BOTH.,#35);
#35=SURFACE_SIDE_STYLE('',(#36));
#36=SURFACE_STYLE_FILL_AREA(#37);
#37=FILL_AREA_STYLE('',(#38));
#38=FILL_AREA_STYLE_COLOUR('',#39);
#39=COLOUR_RGB('ORANGE',1.,0.329991607537957,0.);
#40=MANIFOLD_SOLID_BREP('',#41);
#41=CLOSED_SHELL('',(#60,#61,#62,#63,#64,#65,#66,#67,#68,#69,#70,#71,#72,
#73,#74,#75,#76,#77,#78,#79,#80,#81));
#42=CYLINDRICAL_SURFACE('',#475,1.2);
#43=CYLINDRICAL_SURFACE('',#494,1.2);
#44=FACE_BOUND('',#119,.T.);
#45=FACE_BOUND('',#120,.T.);
#46=FACE_BOUND('',#122,.T.);
#47=FACE_BOUND('',#123,.T.);
#48=FACE_BOUND('',#130,.T.);
#49=FACE_BOUND('',#131,.T.);
#50=FACE_BOUND('',#133,.T.);
#51=FACE_BOUND('',#134,.T.);
#52=FACE_BOUND('',#142,.T.);
#53=FACE_BOUND('',#143,.T.);
#54=FACE_BOUND('',#144,.T.);
#55=FACE_BOUND('',#145,.T.);
#56=CIRCLE('',#470,1.2);
#57=CIRCLE('',#473,1.2);
#58=CIRCLE('',#474,1.2);
#59=CIRCLE('',#492,1.2);
#60=ADVANCED_FACE('',(#102),#82,.T.);
#61=ADVANCED_FACE('',(#44,#45),#83,.T.);
#62=ADVANCED_FACE('',(#103),#84,.F.);
#63=ADVANCED_FACE('',(#46,#47),#42,.F.);
#64=ADVANCED_FACE('',(#104),#85,.F.);
#65=ADVANCED_FACE('',(#105),#86,.F.);
#66=ADVANCED_FACE('',(#106),#87,.T.);
#67=ADVANCED_FACE('',(#107),#88,.F.);
#68=ADVANCED_FACE('',(#108),#89,.F.);
#69=ADVANCED_FACE('',(#109),#90,.T.);
#70=ADVANCED_FACE('',(#48,#49),#91,.T.);
#71=ADVANCED_FACE('',(#110),#92,.T.);
#72=ADVANCED_FACE('',(#50,#51),#93,.T.);
#73=ADVANCED_FACE('',(#111),#94,.T.);
#74=ADVANCED_FACE('',(#112),#95,.T.);
#75=ADVANCED_FACE('',(#113),#96,.F.);
#76=ADVANCED_FACE('',(#114),#97,.F.);
#77=ADVANCED_FACE('',(#115),#98,.T.);
#78=ADVANCED_FACE('',(#116),#99,.F.);
#79=ADVANCED_FACE('',(#117),#100,.T.);
#80=ADVANCED_FACE('',(#52,#53),#101,.T.);
#81=ADVANCED_FACE('',(#54,#55),#43,.F.);
#82=PLANE('',#469);
#83=PLANE('',#471);
#84=PLANE('',#472);
#85=PLANE('',#476);
#86=PLANE('',#477);
#87=PLANE('',#478);
#88=PLANE('',#479);
#89=PLANE('',#480);
#90=PLANE('',#481);
#91=PLANE('',#482);
#92=PLANE('',#483);
#93=PLANE('',#484);
#94=PLANE('',#485);
#95=PLANE('',#486);
#96=PLANE('',#487);
#97=PLANE('',#488);
#98=PLANE('',#489);
#99=PLANE('',#490);
#100=PLANE('',#491);
#101=PLANE('',#493);
#102=FACE_OUTER_BOUND('',#118,.T.);
#103=FACE_OUTER_BOUND('',#121,.T.);
#104=FACE_OUTER_BOUND('',#124,.T.);
#105=FACE_OUTER_BOUND('',#125,.T.);
#106=FACE_OUTER_BOUND('',#126,.T.);
#107=FACE_OUTER_BOUND('',#127,.T.);
#108=FACE_OUTER_BOUND('',#128,.T.);
#109=FACE_OUTER_BOUND('',#129,.T.);
#110=FACE_OUTER_BOUND('',#132,.T.);
#111=FACE_OUTER_BOUND('',#135,.T.);
#112=FACE_OUTER_BOUND('',#136,.T.);
#113=FACE_OUTER_BOUND('',#137,.T.);
#114=FACE_OUTER_BOUND('',#138,.T.);
#115=FACE_OUTER_BOUND('',#139,.T.);
#116=FACE_OUTER_BOUND('',#140,.T.);
#117=FACE_OUTER_BOUND('',#141,.T.);
#118=EDGE_LOOP('',(#146,#147,#148,#149));
#119=EDGE_LOOP('',(#150));
#120=EDGE_LOOP('',(#151,#152,#153,#154));
#121=EDGE_LOOP('',(#155,#156,#157,#158));
#122=EDGE_LOOP('',(#159));
#123=EDGE_LOOP('',(#160));
#124=EDGE_LOOP('',(#161,#162,#163,#164));
#125=EDGE_LOOP('',(#165,#166,#167,#168));
#126=EDGE_LOOP('',(#169,#170,#171,#172,#173,#174,#175));
#127=EDGE_LOOP('',(#176,#177,#178,#179));
#128=EDGE_LOOP('',(#180,#181,#182,#183));
#129=EDGE_LOOP('',(#184,#185,#186,#187,#188,#189,#190));
#130=EDGE_LOOP('',(#191));
#131=EDGE_LOOP('',(#192,#193,#194,#195));
#132=EDGE_LOOP('',(#196,#197,#198,#199));
#133=EDGE_LOOP('',(#200));
#134=EDGE_LOOP('',(#201,#202,#203,#204));
#135=EDGE_LOOP('',(#205,#206,#207,#208,#209,#210,#211));
#136=EDGE_LOOP('',(#212,#213,#214,#215,#216,#217,#218,#219,#220,#221,#222,
#223));
#137=EDGE_LOOP('',(#224,#225,#226,#227));
#138=EDGE_LOOP('',(#228,#229,#230,#231));
#139=EDGE_LOOP('',(#232,#233,#234,#235,#236,#237,#238));
#140=EDGE_LOOP('',(#239,#240,#241,#242));
#141=EDGE_LOOP('',(#243,#244,#245,#246,#247,#248,#249,#250,#251,#252,#253,
#254));
#142=EDGE_LOOP('',(#255));
#143=EDGE_LOOP('',(#256,#257,#258,#259));
#144=EDGE_LOOP('',(#260));
#145=EDGE_LOOP('',(#261));
#146=ORIENTED_EDGE('',*,*,#302,.T.);
#147=ORIENTED_EDGE('',*,*,#303,.T.);
#148=ORIENTED_EDGE('',*,*,#304,.T.);
#149=ORIENTED_EDGE('',*,*,#305,.F.);
#150=ORIENTED_EDGE('',*,*,#306,.T.);
#151=ORIENTED_EDGE('',*,*,#307,.T.);
#152=ORIENTED_EDGE('',*,*,#305,.T.);
#153=ORIENTED_EDGE('',*,*,#308,.T.);
#154=ORIENTED_EDGE('',*,*,#309,.F.);
#155=ORIENTED_EDGE('',*,*,#310,.F.);
#156=ORIENTED_EDGE('',*,*,#311,.F.);
#157=ORIENTED_EDGE('',*,*,#312,.F.);
#158=ORIENTED_EDGE('',*,*,#313,.F.);
#159=ORIENTED_EDGE('',*,*,#314,.F.);
#160=ORIENTED_EDGE('',*,*,#315,.F.);
#161=ORIENTED_EDGE('',*,*,#316,.F.);
#162=ORIENTED_EDGE('',*,*,#317,.F.);
#163=ORIENTED_EDGE('',*,*,#318,.F.);
#164=ORIENTED_EDGE('',*,*,#319,.F.);
#165=ORIENTED_EDGE('',*,*,#320,.F.);
#166=ORIENTED_EDGE('',*,*,#321,.F.);
#167=ORIENTED_EDGE('',*,*,#316,.T.);
#168=ORIENTED_EDGE('',*,*,#322,.F.);
#169=ORIENTED_EDGE('',*,*,#323,.T.);
#170=ORIENTED_EDGE('',*,*,#324,.T.);
#171=ORIENTED_EDGE('',*,*,#325,.T.);
#172=ORIENTED_EDGE('',*,*,#326,.F.);
#173=ORIENTED_EDGE('',*,*,#327,.T.);
#174=ORIENTED_EDGE('',*,*,#322,.T.);
#175=ORIENTED_EDGE('',*,*,#319,.T.);
#176=ORIENTED_EDGE('',*,*,#328,.F.);
#177=ORIENTED_EDGE('',*,*,#324,.F.);
#178=ORIENTED_EDGE('',*,*,#329,.T.);
#179=ORIENTED_EDGE('',*,*,#330,.F.);
#180=ORIENTED_EDGE('',*,*,#329,.F.);
#181=ORIENTED_EDGE('',*,*,#323,.F.);
#182=ORIENTED_EDGE('',*,*,#318,.T.);
#183=ORIENTED_EDGE('',*,*,#331,.F.);
#184=ORIENTED_EDGE('',*,*,#331,.T.);
#185=ORIENTED_EDGE('',*,*,#317,.T.);
#186=ORIENTED_EDGE('',*,*,#321,.T.);
#187=ORIENTED_EDGE('',*,*,#332,.T.);
#188=ORIENTED_EDGE('',*,*,#333,.T.);
#189=ORIENTED_EDGE('',*,*,#334,.T.);
#190=ORIENTED_EDGE('',*,*,#330,.T.);
#191=ORIENTED_EDGE('',*,*,#315,.T.);
#192=ORIENTED_EDGE('',*,*,#335,.T.);
#193=ORIENTED_EDGE('',*,*,#336,.T.);
#194=ORIENTED_EDGE('',*,*,#337,.T.);
#195=ORIENTED_EDGE('',*,*,#333,.F.);
#196=ORIENTED_EDGE('',*,*,#338,.T.);
#197=ORIENTED_EDGE('',*,*,#339,.T.);
#198=ORIENTED_EDGE('',*,*,#340,.T.);
#199=ORIENTED_EDGE('',*,*,#336,.F.);
#200=ORIENTED_EDGE('',*,*,#314,.T.);
#201=ORIENTED_EDGE('',*,*,#341,.T.);
#202=ORIENTED_EDGE('',*,*,#342,.T.);
#203=ORIENTED_EDGE('',*,*,#343,.T.);
#204=ORIENTED_EDGE('',*,*,#339,.F.);
#205=ORIENTED_EDGE('',*,*,#344,.T.);
#206=ORIENTED_EDGE('',*,*,#345,.T.);
#207=ORIENTED_EDGE('',*,*,#346,.T.);
#208=ORIENTED_EDGE('',*,*,#342,.F.);
#209=ORIENTED_EDGE('',*,*,#347,.T.);
#210=ORIENTED_EDGE('',*,*,#348,.T.);
#211=ORIENTED_EDGE('',*,*,#311,.T.);
#212=ORIENTED_EDGE('',*,*,#346,.F.);
#213=ORIENTED_EDGE('',*,*,#349,.T.);
#214=ORIENTED_EDGE('',*,*,#350,.F.);
#215=ORIENTED_EDGE('',*,*,#308,.F.);
#216=ORIENTED_EDGE('',*,*,#304,.F.);
#217=ORIENTED_EDGE('',*,*,#351,.F.);
#218=ORIENTED_EDGE('',*,*,#325,.F.);
#219=ORIENTED_EDGE('',*,*,#328,.T.);
#220=ORIENTED_EDGE('',*,*,#334,.F.);
#221=ORIENTED_EDGE('',*,*,#337,.F.);
#222=ORIENTED_EDGE('',*,*,#340,.F.);
#223=ORIENTED_EDGE('',*,*,#343,.F.);
#224=ORIENTED_EDGE('',*,*,#349,.F.);
#225=ORIENTED_EDGE('',*,*,#345,.F.);
#226=ORIENTED_EDGE('',*,*,#352,.F.);
#227=ORIENTED_EDGE('',*,*,#353,.F.);
#228=ORIENTED_EDGE('',*,*,#352,.T.);
#229=ORIENTED_EDGE('',*,*,#344,.F.);
#230=ORIENTED_EDGE('',*,*,#310,.T.);
#231=ORIENTED_EDGE('',*,*,#354,.F.);
#232=ORIENTED_EDGE('',*,*,#354,.T.);
#233=ORIENTED_EDGE('',*,*,#313,.T.);
#234=ORIENTED_EDGE('',*,*,#355,.T.);
#235=ORIENTED_EDGE('',*,*,#356,.T.);
#236=ORIENTED_EDGE('',*,*,#309,.T.);
#237=ORIENTED_EDGE('',*,*,#350,.T.);
#238=ORIENTED_EDGE('',*,*,#353,.T.);
#239=ORIENTED_EDGE('',*,*,#312,.T.);
#240=ORIENTED_EDGE('',*,*,#348,.F.);
#241=ORIENTED_EDGE('',*,*,#357,.F.);
#242=ORIENTED_EDGE('',*,*,#355,.F.);
#243=ORIENTED_EDGE('',*,*,#357,.T.);
#244=ORIENTED_EDGE('',*,*,#347,.F.);
#245=ORIENTED_EDGE('',*,*,#341,.F.);
#246=ORIENTED_EDGE('',*,*,#338,.F.);
#247=ORIENTED_EDGE('',*,*,#335,.F.);
#248=ORIENTED_EDGE('',*,*,#332,.F.);
#249=ORIENTED_EDGE('',*,*,#320,.T.);
#250=ORIENTED_EDGE('',*,*,#327,.F.);
#251=ORIENTED_EDGE('',*,*,#358,.F.);
#252=ORIENTED_EDGE('',*,*,#302,.F.);
#253=ORIENTED_EDGE('',*,*,#307,.F.);
#254=ORIENTED_EDGE('',*,*,#356,.F.);
#255=ORIENTED_EDGE('',*,*,#359,.T.);
#256=ORIENTED_EDGE('',*,*,#358,.T.);
#257=ORIENTED_EDGE('',*,*,#326,.T.);
#258=ORIENTED_EDGE('',*,*,#351,.T.);
#259=ORIENTED_EDGE('',*,*,#303,.F.);
#260=ORIENTED_EDGE('',*,*,#306,.F.);
#261=ORIENTED_EDGE('',*,*,#359,.F.);
#262=VERTEX_POINT('',#605);
#263=VERTEX_POINT('',#606);
#264=VERTEX_POINT('',#608);
#265=VERTEX_POINT('',#610);
#266=VERTEX_POINT('',#614);
#267=VERTEX_POINT('',#616);
#268=VERTEX_POINT('',#618);
#269=VERTEX_POINT('',#622);
#270=VERTEX_POINT('',#623);
#271=VERTEX_POINT('',#625);
#272=VERTEX_POINT('',#627);
#273=VERTEX_POINT('',#631);
#274=VERTEX_POINT('',#633);
#275=VERTEX_POINT('',#636);
#276=VERTEX_POINT('',#637);
#277=VERTEX_POINT('',#639);
#278=VERTEX_POINT('',#641);
#279=VERTEX_POINT('',#645);
#280=VERTEX_POINT('',#646);
#281=VERTEX_POINT('',#651);
#282=VERTEX_POINT('',#653);
#283=VERTEX_POINT('',#655);
#284=VERTEX_POINT('',#657);
#285=VERTEX_POINT('',#661);
#286=VERTEX_POINT('',#663);
#287=VERTEX_POINT('',#669);
#288=VERTEX_POINT('',#671);
#289=VERTEX_POINT('',#675);
#290=VERTEX_POINT('',#677);
#291=VERTEX_POINT('',#681);
#292=VERTEX_POINT('',#683);
#293=VERTEX_POINT('',#687);
#294=VERTEX_POINT('',#689);
#295=VERTEX_POINT('',#693);
#296=VERTEX_POINT('',#695);
#297=VERTEX_POINT('',#698);
#298=VERTEX_POINT('',#702);
#299=VERTEX_POINT('',#707);
#300=VERTEX_POINT('',#713);
#301=VERTEX_POINT('',#721);
#302=EDGE_CURVE('',#262,#263,#360,.T.);
#303=EDGE_CURVE('',#263,#264,#361,.T.);
#304=EDGE_CURVE('',#264,#265,#362,.T.);
#305=EDGE_CURVE('',#262,#265,#363,.T.);
#306=EDGE_CURVE('',#266,#266,#56,.T.);
#307=EDGE_CURVE('',#267,#262,#364,.T.);
#308=EDGE_CURVE('',#265,#268,#365,.T.);
#309=EDGE_CURVE('',#267,#268,#366,.T.);
#310=EDGE_CURVE('',#269,#270,#367,.T.);
#311=EDGE_CURVE('',#271,#269,#368,.T.);
#312=EDGE_CURVE('',#272,#271,#369,.T.);
#313=EDGE_CURVE('',#270,#272,#370,.T.);
#314=EDGE_CURVE('',#273,#273,#57,.T.);
#315=EDGE_CURVE('',#274,#274,#58,.T.);
#316=EDGE_CURVE('',#275,#276,#371,.T.);
#317=EDGE_CURVE('',#277,#275,#372,.T.);
#318=EDGE_CURVE('',#278,#277,#373,.T.);
#319=EDGE_CURVE('',#276,#278,#374,.T.);
#320=EDGE_CURVE('',#279,#280,#375,.T.);
#321=EDGE_CURVE('',#275,#279,#376,.T.);
#322=EDGE_CURVE('',#280,#276,#377,.T.);
#323=EDGE_CURVE('',#278,#281,#378,.T.);
#324=EDGE_CURVE('',#281,#282,#379,.T.);
#325=EDGE_CURVE('',#282,#283,#380,.T.);
#326=EDGE_CURVE('',#284,#283,#381,.T.);
#327=EDGE_CURVE('',#284,#280,#382,.T.);
#328=EDGE_CURVE('',#282,#285,#383,.T.);
#329=EDGE_CURVE('',#281,#286,#384,.T.);
#330=EDGE_CURVE('',#285,#286,#385,.T.);
#331=EDGE_CURVE('',#286,#277,#386,.T.);
#332=EDGE_CURVE('',#279,#287,#387,.T.);
#333=EDGE_CURVE('',#287,#288,#388,.T.);
#334=EDGE_CURVE('',#288,#285,#389,.T.);
#335=EDGE_CURVE('',#287,#289,#390,.T.);
#336=EDGE_CURVE('',#289,#290,#391,.T.);
#337=EDGE_CURVE('',#290,#288,#392,.T.);
#338=EDGE_CURVE('',#289,#291,#393,.T.);
#339=EDGE_CURVE('',#291,#292,#394,.T.);
#340=EDGE_CURVE('',#292,#290,#395,.T.);
#341=EDGE_CURVE('',#291,#293,#396,.T.);
#342=EDGE_CURVE('',#293,#294,#397,.T.);
#343=EDGE_CURVE('',#294,#292,#398,.T.);
#344=EDGE_CURVE('',#269,#295,#399,.T.);
#345=EDGE_CURVE('',#295,#296,#400,.T.);
#346=EDGE_CURVE('',#296,#294,#401,.T.);
#347=EDGE_CURVE('',#293,#297,#402,.T.);
#348=EDGE_CURVE('',#297,#271,#403,.T.);
#349=EDGE_CURVE('',#296,#298,#404,.T.);
#350=EDGE_CURVE('',#268,#298,#405,.T.);
#351=EDGE_CURVE('',#283,#264,#406,.T.);
#352=EDGE_CURVE('',#299,#295,#407,.T.);
#353=EDGE_CURVE('',#298,#299,#408,.T.);
#354=EDGE_CURVE('',#299,#270,#409,.T.);
#355=EDGE_CURVE('',#272,#300,#410,.T.);
#356=EDGE_CURVE('',#300,#267,#411,.T.);
#357=EDGE_CURVE('',#300,#297,#412,.T.);
#358=EDGE_CURVE('',#263,#284,#413,.T.);
#359=EDGE_CURVE('',#301,#301,#59,.T.);
#360=LINE('',#604,#414);
#361=LINE('',#607,#415);
#362=LINE('',#609,#416);
#363=LINE('',#611,#417);
#364=LINE('',#615,#418);
#365=LINE('',#617,#419);
#366=LINE('',#619,#420);
#367=LINE('',#621,#421);
#368=LINE('',#624,#422);
#369=LINE('',#626,#423);
#370=LINE('',#628,#424);
#371=LINE('',#635,#425);
#372=LINE('',#638,#426);
#373=LINE('',#640,#427);
#374=LINE('',#642,#428);
#375=LINE('',#644,#429);
#376=LINE('',#647,#430);
#377=LINE('',#648,#431);
#378=LINE('',#650,#432);
#379=LINE('',#652,#433);
#380=LINE('',#654,#434);
#381=LINE('',#656,#435);
#382=LINE('',#658,#436);
#383=LINE('',#660,#437);
#384=LINE('',#662,#438);
#385=LINE('',#664,#439);
#386=LINE('',#666,#440);
#387=LINE('',#668,#441);
#388=LINE('',#670,#442);
#389=LINE('',#672,#443);
#390=LINE('',#674,#444);
#391=LINE('',#676,#445);
#392=LINE('',#678,#446);
#393=LINE('',#680,#447);
#394=LINE('',#682,#448);
#395=LINE('',#684,#449);
#396=LINE('',#686,#450);
#397=LINE('',#688,#451);
#398=LINE('',#690,#452);
#399=LINE('',#692,#453);
#400=LINE('',#694,#454);
#401=LINE('',#696,#455);
#402=LINE('',#697,#456);
#403=LINE('',#699,#457);
#404=LINE('',#701,#458);
#405=LINE('',#703,#459);
#406=LINE('',#704,#460);
#407=LINE('',#706,#461);
#408=LINE('',#708,#462);
#409=LINE('',#710,#463);
#410=LINE('',#712,#464);
#411=LINE('',#714,#465);
#412=LINE('',#716,#466);
#413=LINE('',#718,#467);
#414=VECTOR('',#497,1.);
#415=VECTOR('',#498,1.);
#416=VECTOR('',#499,1.);
#417=VECTOR('',#500,1.);
#418=VECTOR('',#505,1.);
#419=VECTOR('',#506,1.);
#420=VECTOR('',#507,1.);
#421=VECTOR('',#510,1.);
#422=VECTOR('',#511,1.);
#423=VECTOR('',#512,1.);
#424=VECTOR('',#513,1.);
#425=VECTOR('',#522,1.);
#426=VECTOR('',#523,1.);
#427=VECTOR('',#524,1.);
#428=VECTOR('',#525,1.);
#429=VECTOR('',#528,1.);
#430=VECTOR('',#529,1.);
#431=VECTOR('',#530,1.);
#432=VECTOR('',#533,1.);
#433=VECTOR('',#534,1.);
#434=VECTOR('',#535,1.);
#435=VECTOR('',#536,1.);
#436=VECTOR('',#537,1.);
#437=VECTOR('',#540,1.);
#438=VECTOR('',#541,1.);
#439=VECTOR('',#542,1.);
#440=VECTOR('',#545,1.);
#441=VECTOR('',#548,1.);
#442=VECTOR('',#549,1.);
#443=VECTOR('',#550,1.);
#444=VECTOR('',#553,1.);
#445=VECTOR('',#554,1.);
#446=VECTOR('',#555,1.);
#447=VECTOR('',#558,1.);
#448=VECTOR('',#559,1.);
#449=VECTOR('',#560,1.);
#450=VECTOR('',#563,1.);
#451=VECTOR('',#564,1.);
#452=VECTOR('',#565,1.);
#453=VECTOR('',#568,1.);
#454=VECTOR('',#569,1.);
#455=VECTOR('',#570,1.);
#456=VECTOR('',#571,1.);
#457=VECTOR('',#572,1.);
#458=VECTOR('',#575,1.);
#459=VECTOR('',#576,1.);
#460=VECTOR('',#577,1.);
#461=VECTOR('',#580,1.);
#462=VECTOR('',#581,1.);
#463=VECTOR('',#584,1.);
#464=VECTOR('',#587,1.);
#465=VECTOR('',#588,1.);
#466=VECTOR('',#591,1.);
#467=VECTOR('',#594,1.);
#468=AXIS2_PLACEMENT_3D('',#603,#495,#496);
#469=AXIS2_PLACEMENT_3D('',#612,#501,#502);
#470=AXIS2_PLACEMENT_3D('',#613,#503,#504);
#471=AXIS2_PLACEMENT_3D('',#620,#508,#509);
#472=AXIS2_PLACEMENT_3D('',#629,#514,#515);
#473=AXIS2_PLACEMENT_3D('',#630,#516,#517);
#474=AXIS2_PLACEMENT_3D('',#632,#518,#519);
#475=AXIS2_PLACEMENT_3D('',#634,#520,#521);
#476=AXIS2_PLACEMENT_3D('',#643,#526,#527);
#477=AXIS2_PLACEMENT_3D('',#649,#531,#532);
#478=AXIS2_PLACEMENT_3D('',#659,#538,#539);
#479=AXIS2_PLACEMENT_3D('',#665,#543,#544);
#480=AXIS2_PLACEMENT_3D('',#667,#546,#547);
#481=AXIS2_PLACEMENT_3D('',#673,#551,#552);
#482=AXIS2_PLACEMENT_3D('',#679,#556,#557);
#483=AXIS2_PLACEMENT_3D('',#685,#561,#562);
#484=AXIS2_PLACEMENT_3D('',#691,#566,#567);
#485=AXIS2_PLACEMENT_3D('',#700,#573,#574);
#486=AXIS2_PLACEMENT_3D('',#705,#578,#579);
#487=AXIS2_PLACEMENT_3D('',#709,#582,#583);
#488=AXIS2_PLACEMENT_3D('',#711,#585,#586);
#489=AXIS2_PLACEMENT_3D('',#715,#589,#590);
#490=AXIS2_PLACEMENT_3D('',#717,#592,#593);
#491=AXIS2_PLACEMENT_3D('',#719,#595,#596);
#492=AXIS2_PLACEMENT_3D('',#720,#597,#598);
#493=AXIS2_PLACEMENT_3D('',#722,#599,#600);
#494=AXIS2_PLACEMENT_3D('',#723,#601,#602);
#495=DIRECTION('',(0.,0.,1.));
#496=DIRECTION('',(1.,0.,0.));
#497=DIRECTION('',(0.,1.,0.));
#498=DIRECTION('',(0.,0.,1.));
#499=DIRECTION('',(0.,-1.,0.));
#500=DIRECTION('',(0.,0.,1.));
#501=DIRECTION('',(1.,0.,0.));
#502=DIRECTION('',(0.,1.,0.));
#503=DIRECTION('',(1.20466908053945E-16,1.,2.0865480538016E-16));
#504=DIRECTION('',(-1.,1.20466908053945E-16,1.08420217248551E-15));
#505=DIRECTION('',(1.,0.,0.));
#506=DIRECTION('',(-1.,0.,0.));
#507=DIRECTION('',(0.,0.,1.));
#508=DIRECTION('',(0.,-1.,0.));
#509=DIRECTION('',(1.,0.,0.));
#510=DIRECTION('',(1.,0.,0.));
#511=DIRECTION('',(-0.577350269189626,-0.577350269189626,0.577350269189626));
#512=DIRECTION('',(-1.,0.,6.19544098563145E-17));
#513=DIRECTION('',(-0.577350269189625,0.577350269189626,-0.577350269189626));
#514=DIRECTION('',(0.,0.707106781186547,0.707106781186548));
#515=DIRECTION('',(0.,0.707106781186548,-0.707106781186547));
#516=DIRECTION('',(4.8186763221578E-16,1.,-3.10734530379144E-31));
#517=DIRECTION('',(-1.,4.8186763221578E-16,7.22801448323669E-16));
#518=DIRECTION('',(-4.62592926927148E-16,-1.,-2.3405398629706E-31));
#519=DIRECTION('',(-1.,3.61400724161835E-16,-3.61400724161835E-16));
#520=DIRECTION('',(-4.62592926927148E-16,-1.,-3.00926553810505E-31));
#521=DIRECTION('',(-1.,3.61400724161835E-16,-7.2280144832367E-16));
#522=DIRECTION('',(1.,-7.95744713750829E-17,-9.94680892188536E-18));
#523=DIRECTION('',(-0.577350269189627,-0.577350269189626,-0.577350269189625));
#524=DIRECTION('',(-1.,9.74563750548769E-17,0.));
#525=DIRECTION('',(-0.577350269189626,0.577350269189626,0.577350269189626));
#526=DIRECTION('',(-5.57561242430318E-17,-0.707106781186547,0.707106781186548));
#527=DIRECTION('',(0.,-0.707106781186548,-0.707106781186547));
#528=DIRECTION('',(1.,-9.74563750548769E-17,0.));
#529=DIRECTION('',(0.582160843424763,0.582160843424762,-0.567606822339143));
#530=DIRECTION('',(0.582160843424763,-0.582160843424762,0.567606822339143));
#531=DIRECTION('',(-5.50459406693872E-17,-0.69810013612954,-0.716000139620041));
#532=DIRECTION('',(0.,0.716000139620041,-0.69810013612954));
#533=DIRECTION('',(0.577350269189626,-0.577350269189625,0.577350269189626));
#534=DIRECTION('',(-0.582160843424761,0.582160843424762,0.567606822339144));
#535=DIRECTION('',(0.707106781186548,-0.707106781186547,0.));
#536=DIRECTION('',(0.,0.,1.));
#537=DIRECTION('',(-0.707106781186548,0.707106781186547,0.));
#538=DIRECTION('',(0.707106781186547,0.707106781186548,0.));
#539=DIRECTION('',(-0.707106781186548,0.707106781186547,0.));
#540=DIRECTION('',(-1.,9.74563750548769E-17,0.));
#541=DIRECTION('',(-1.,7.95744713750829E-17,3.97872356875415E-17));
#542=DIRECTION('',(-0.582160843424762,-0.58216084342476,-0.567606822339144));
#543=DIRECTION('',(5.78688094216631E-17,-0.698100136129541,0.71600013962004));
#544=DIRECTION('',(0.,-0.71600013962004,-0.698100136129541));
#545=DIRECTION('',(0.577350269189626,0.577350269189626,-0.577350269189626));
#546=DIRECTION('',(-1.11512248486064E-16,-0.707106781186548,-0.707106781186547));
#547=DIRECTION('',(0.,0.707106781186547,-0.707106781186548));
#548=DIRECTION('',(-0.707106781186548,-0.707106781186547,0.));
#549=DIRECTION('',(0.,0.,1.));
#550=DIRECTION('',(0.707106781186548,0.707106781186547,0.));
#551=DIRECTION('',(-0.707106781186547,0.707106781186548,0.));
#552=DIRECTION('',(-0.707106781186548,-0.707106781186547,0.));
#553=DIRECTION('',(-1.,1.0842021724855E-16,0.));
#554=DIRECTION('',(0.,0.,1.));
#555=DIRECTION('',(1.,-1.0842021724855E-16,0.));
#556=DIRECTION('',(1.0842021724855E-16,1.,0.));
#557=DIRECTION('',(-1.,1.0842021724855E-16,0.));
#558=DIRECTION('',(-1.11875419563557E-16,-1.,0.));
#559=DIRECTION('',(0.,0.,1.));
#560=DIRECTION('',(1.11875419563557E-16,1.,0.));
#561=DIRECTION('',(-1.,1.11875419563557E-16,0.));
#562=DIRECTION('',(-1.11875419563557E-16,-1.,0.));
#563=DIRECTION('',(1.,0.,0.));
#564=DIRECTION('',(0.,0.,1.));
#565=DIRECTION('',(-1.,0.,0.));
#566=DIRECTION('',(0.,-1.,0.));
#567=DIRECTION('',(1.,0.,0.));
#568=DIRECTION('',(0.582160843424761,0.582160843424762,0.567606822339144));
#569=DIRECTION('',(-0.577350269189626,-0.577350269189626,0.577350269189626));
#570=DIRECTION('',(-0.707106781186547,-0.707106781186548,0.));
#571=DIRECTION('',(0.707106781186547,0.707106781186548,0.));
#572=DIRECTION('',(0.582160843424761,0.582160843424762,0.567606822339144));
#573=DIRECTION('',(0.707106781186548,-0.707106781186547,0.));
#574=DIRECTION('',(0.707106781186547,0.707106781186548,0.));
#575=DIRECTION('',(1.,0.,0.));
#576=DIRECTION('',(-0.707106781186547,0.707106781186548,0.));
#577=DIRECTION('',(1.,-1.0842021724855E-16,0.));
#578=DIRECTION('',(0.,0.,1.));
#579=DIRECTION('',(1.,0.,0.));
#580=DIRECTION('',(-1.,0.,6.19544098563145E-17));
#581=DIRECTION('',(-0.577350269189625,0.577350269189626,-0.577350269189626));
#582=DIRECTION('',(0.,0.707106781186547,0.707106781186547));
#583=DIRECTION('',(0.,0.707106781186547,-0.707106781186547));
#584=DIRECTION('',(0.582160843424761,-0.582160843424762,-0.567606822339144));
#585=DIRECTION('',(0.,0.69810013612954,-0.716000139620041));
#586=DIRECTION('',(0.,-0.716000139620041,-0.69810013612954));
#587=DIRECTION('',(0.582160843424761,-0.582160843424762,-0.567606822339144));
#588=DIRECTION('',(0.707106781186547,-0.707106781186548,0.));
#589=DIRECTION('',(-0.707106781186548,-0.707106781186547,0.));
#590=DIRECTION('',(0.707106781186547,-0.707106781186548,0.));
#591=DIRECTION('',(-1.,0.,0.));
#592=DIRECTION('',(0.,0.69810013612954,-0.716000139620041));
#593=DIRECTION('',(0.,-0.716000139620041,-0.69810013612954));
#594=DIRECTION('',(-1.,1.0842021724855E-16,0.));
#595=DIRECTION('',(0.,0.,-1.));
#596=DIRECTION('',(1.,0.,0.));
#597=DIRECTION('',(-2.69475069448812E-16,-1.,-8.67361737988403E-16));
#598=DIRECTION('',(-1.,3.61400724161835E-16,0.));
#599=DIRECTION('',(1.0842021724855E-16,1.,0.));
#600=DIRECTION('',(-1.,1.0842021724855E-16,0.));
#601=DIRECTION('',(1.9089302992619E-17,-1.,-4.33680868994202E-16));
#602=DIRECTION('',(-1.,0.,0.));
#603=CARTESIAN_POINT('',(0.,0.,0.));
#604=CARTESIAN_POINT('',(20.9,0.,0.));
#605=CARTESIAN_POINT('',(20.9,0.,0.));
#606=CARTESIAN_POINT('',(20.9,3.,0.));
#607=CARTESIAN_POINT('',(20.9,3.,0.));
#608=CARTESIAN_POINT('',(20.9,3.,3.95));
#609=CARTESIAN_POINT('',(20.9,3.,3.95));
#610=CARTESIAN_POINT('',(20.9,0.,3.95));
#611=CARTESIAN_POINT('',(20.9,0.,0.));
#612=CARTESIAN_POINT('',(20.9,0.,0.));
#613=CARTESIAN_POINT('',(18.95,-2.74664550362994E-15,1.975));
#614=CARTESIAN_POINT('',(17.75,-2.60208521396521E-15,1.975));
#615=CARTESIAN_POINT('',(16.45,0.,0.));
#616=CARTESIAN_POINT('',(16.45,0.,0.));
#617=CARTESIAN_POINT('',(20.9,0.,3.95));
#618=CARTESIAN_POINT('',(16.45,0.,3.95));
#619=CARTESIAN_POINT('',(16.45,0.,0.));
#620=CARTESIAN_POINT('',(16.45,0.,0.));
#621=CARTESIAN_POINT('',(5.95,1.5,1.975));
#622=CARTESIAN_POINT('',(5.95,1.5,1.975));
#623=CARTESIAN_POINT('',(14.95,1.5,1.975));
#624=CARTESIAN_POINT('',(6.95,2.5,0.975000000000001));
#625=CARTESIAN_POINT('',(6.95,2.5,0.975));
#626=CARTESIAN_POINT('',(13.95,2.5,0.975));
#627=CARTESIAN_POINT('',(13.95,2.5,0.975000000000001));
#628=CARTESIAN_POINT('',(14.95,1.5,1.975));
#629=CARTESIAN_POINT('',(15.95,1.5,1.975));
#630=CARTESIAN_POINT('',(1.95,-1.01192202765314E-15,1.975));
#631=CARTESIAN_POINT('',(0.749999999999999,-4.33680868994202E-16,1.975));
#632=CARTESIAN_POINT('',(1.95,3.,1.975));
#633=CARTESIAN_POINT('',(0.750000000000001,3.,1.975));
#634=CARTESIAN_POINT('',(1.95,3.,1.975));
#635=CARTESIAN_POINT('',(5.,4.,0.975));
#636=CARTESIAN_POINT('',(5.,4.,0.975));
#637=CARTESIAN_POINT('',(15.9,4.,0.975));
#638=CARTESIAN_POINT('',(6.,5.,1.975));
#639=CARTESIAN_POINT('',(6.,5.,1.975));
#640=CARTESIAN_POINT('',(14.9,5.,1.975));
#641=CARTESIAN_POINT('',(14.9,5.,1.975));
#642=CARTESIAN_POINT('',(15.9,4.,0.975));
#643=CARTESIAN_POINT('',(4.95,5.,1.975));
#644=CARTESIAN_POINT('',(6.,5.,0.));
#645=CARTESIAN_POINT('',(6.,5.,0.));
#646=CARTESIAN_POINT('',(14.9,5.,0.));
#647=CARTESIAN_POINT('',(5.,4.,0.975));
#648=CARTESIAN_POINT('',(14.9,5.,4.32986979603811E-16));
#649=CARTESIAN_POINT('',(4.95,4.,0.975));
#650=CARTESIAN_POINT('',(14.9,5.,1.975));
#651=CARTESIAN_POINT('',(15.9,4.,2.975));
#652=CARTESIAN_POINT('',(15.9,4.,2.975));
#653=CARTESIAN_POINT('',(14.9,5.,3.95));
#654=CARTESIAN_POINT('',(14.9,5.,3.95));
#655=CARTESIAN_POINT('',(16.9,3.,3.95));
#656=CARTESIAN_POINT('',(16.9,3.,0.));
#657=CARTESIAN_POINT('',(16.9,3.,0.));
#658=CARTESIAN_POINT('',(16.9,3.,0.));
#659=CARTESIAN_POINT('',(16.9,3.,0.));
#660=CARTESIAN_POINT('',(14.9,5.,3.95));
#661=CARTESIAN_POINT('',(6.,5.,3.95));
#662=CARTESIAN_POINT('',(15.9,4.,2.975));
#663=CARTESIAN_POINT('',(5.,4.,2.975));
#664=CARTESIAN_POINT('',(6.,5.,3.95));
#665=CARTESIAN_POINT('',(4.95,5.,3.95));
#666=CARTESIAN_POINT('',(5.,4.,2.975));
#667=CARTESIAN_POINT('',(4.95,4.,2.975));
#668=CARTESIAN_POINT('',(6.,5.,0.));
#669=CARTESIAN_POINT('',(4.,3.,0.));
#670=CARTESIAN_POINT('',(4.,3.,0.));
#671=CARTESIAN_POINT('',(4.,3.,3.95));
#672=CARTESIAN_POINT('',(4.,3.,3.95));
#673=CARTESIAN_POINT('',(6.,5.,0.));
#674=CARTESIAN_POINT('',(4.,3.,0.));
#675=CARTESIAN_POINT('',(0.,3.,0.));
#676=CARTESIAN_POINT('',(0.,3.,0.));
#677=CARTESIAN_POINT('',(0.,3.,3.95));
#678=CARTESIAN_POINT('',(0.,3.,3.95));
#679=CARTESIAN_POINT('',(4.,3.,0.));
#680=CARTESIAN_POINT('',(3.3562625869067E-16,3.,0.));
#681=CARTESIAN_POINT('',(0.,0.,0.));
#682=CARTESIAN_POINT('',(0.,0.,0.));
#683=CARTESIAN_POINT('',(0.,0.,3.95));
#684=CARTESIAN_POINT('',(0.,0.,3.95));
#685=CARTESIAN_POINT('',(3.3562625869067E-16,3.,0.));
#686=CARTESIAN_POINT('',(0.,0.,0.));
#687=CARTESIAN_POINT('',(4.45,0.,0.));
#688=CARTESIAN_POINT('',(4.45,0.,0.));
#689=CARTESIAN_POINT('',(4.45,0.,3.95));
#690=CARTESIAN_POINT('',(4.45,0.,3.95));
#691=CARTESIAN_POINT('',(0.,0.,0.));
#692=CARTESIAN_POINT('',(5.95000000000001,1.5,1.975));
#693=CARTESIAN_POINT('',(6.95,2.5,2.95));
#694=CARTESIAN_POINT('',(6.95,2.5,2.95));
#695=CARTESIAN_POINT('',(5.95,1.5,3.95));
#696=CARTESIAN_POINT('',(5.95,1.5,3.95));
#697=CARTESIAN_POINT('',(4.45,0.,0.));
#698=CARTESIAN_POINT('',(5.95,1.5,0.));
#699=CARTESIAN_POINT('',(5.95000000000001,1.5,0.));
#700=CARTESIAN_POINT('',(4.30857864376269,-0.14142135623731,-0.26975484907627));
#701=CARTESIAN_POINT('',(5.95,1.5,3.95));
#702=CARTESIAN_POINT('',(14.95,1.5,3.95));
#703=CARTESIAN_POINT('',(16.45,0.,3.95));
#704=CARTESIAN_POINT('',(16.9,3.,3.95));
#705=CARTESIAN_POINT('',(-1.045,-0.25,3.95));
#706=CARTESIAN_POINT('',(13.95,2.5,2.95));
#707=CARTESIAN_POINT('',(13.95,2.5,2.95));
#708=CARTESIAN_POINT('',(14.95,1.5,3.95));
#709=CARTESIAN_POINT('',(15.95,1.5,3.95));
#710=CARTESIAN_POINT('',(13.95,2.5,2.95));
#711=CARTESIAN_POINT('',(15.95,2.5,2.95));
#712=CARTESIAN_POINT('',(13.95,2.5,0.975000000000001));
#713=CARTESIAN_POINT('',(14.95,1.5,0.));
#714=CARTESIAN_POINT('',(14.95,1.5,0.));
#715=CARTESIAN_POINT('',(13.8085786437627,2.64142135623731,-0.26975484907627));
#716=CARTESIAN_POINT('',(14.95,1.5,0.));
#717=CARTESIAN_POINT('',(15.95,2.5,0.975));
#718=CARTESIAN_POINT('',(20.9,3.,0.));
#719=CARTESIAN_POINT('',(-1.045,5.25,0.));
#720=CARTESIAN_POINT('',(18.95,3.,1.975));
#721=CARTESIAN_POINT('',(17.75,3.,1.975));
#722=CARTESIAN_POINT('',(20.9,3.,0.));
#723=CARTESIAN_POINT('',(18.95,3.,1.975));
#724=MECHANICAL_DESIGN_GEOMETRIC_PRESENTATION_REPRESENTATION('',(#32),#725);
#725=(
GEOMETRIC_REPRESENTATION_CONTEXT(3)
GLOBAL_UNCERTAINTY_ASSIGNED_CONTEXT((#726))
GLOBAL_UNIT_ASSIGNED_CONTEXT((#732,#728,#727))
REPRESENTATION_CONTEXT('100193942ugm000_b','TOP_LEVEL_ASSEMBLY_PART')
);
#726=UNCERTAINTY_MEASURE_WITH_UNIT(LENGTH_MEASURE(2.E-5),#732,
'DISTANCE_ACCURACY_VALUE','Maximum Tolerance applied to model');
#727=(
NAMED_UNIT(*)
SI_UNIT($,.STERADIAN.)
SOLID_ANGLE_UNIT()
);
#728=(
CONVERSION_BASED_UNIT('DEGREE',#730)
NAMED_UNIT(#729)
PLANE_ANGLE_UNIT()
);
#729=DIMENSIONAL_EXPONENTS(0.,0.,0.,0.,0.,0.,0.);
#730=PLANE_ANGLE_MEASURE_WITH_UNIT(PLANE_ANGLE_MEASURE(0.0174532925),#731);
#731=(
NAMED_UNIT(*)
PLANE_ANGLE_UNIT()
SI_UNIT($,.RADIAN.)
);
#732=(
LENGTH_UNIT()
NAMED_UNIT(*)
SI_UNIT(.MILLI.,.METRE.)
);
ENDSEC;
END-ISO-10303-21;
