ISO-10303-21;
HEADER;
/* Generated by software containing ST-Developer
 * from STEP Tools, Inc. (www.steptools.com) 
 */
/* OPTION: using custom schema-name function */

FILE_DESCRIPTION(
/* description */ (''),
/* implementation_level */ '2;1');

FILE_NAME(
/* name */ '100102507ugm000_b.stp',
/* time_stamp */ '2014-11-03T08:29:50+01:00',
/* author */ (''),
/* organization */ (''),
/* preprocessor_version */ 'ST-DEVELOPER v15',
/* originating_system */ 'SIEMENS PLM Software NX 8.5',
/* authorisation */ '');

FILE_SCHEMA (('AUTOMOTIVE_DESIGN { 1 0 10303 214 3 1 1 1 }'));
ENDSEC;

DATA;
#10=PROPERTY_DEFINITION_REPRESENTATION(#14,#12);
#11=PROPERTY_DEFINITION_REPRESENTATION(#15,#13);
#12=REPRESENTATION('',(#16),#607);
#13=REPRESENTATION('',(#17),#607);
#14=PROPERTY_DEFINITION('pmi validation property','',#21);
#15=PROPERTY_DEFINITION('pmi validation property','',#21);
#16=VALUE_REPRESENTATION_ITEM('number of annotations',COUNT_MEASURE(0.));
#17=VALUE_REPRESENTATION_ITEM('number of views',COUNT_MEASURE(0.));
#18=SHAPE_REPRESENTATION_RELATIONSHIP('None',
'relationship between 100102507ugm000_b-None and 100102507ugm000_b-Non
e',#30,#19);
#19=ADVANCED_BREP_SHAPE_REPRESENTATION('100102507ugm000_b-None',(#40),#607);
#20=SHAPE_DEFINITION_REPRESENTATION(#21,#30);
#21=PRODUCT_DEFINITION_SHAPE('','',#22);
#22=PRODUCT_DEFINITION(' ','',#24,#23);
#23=PRODUCT_DEFINITION_CONTEXT('part definition',#29,'design');
#24=PRODUCT_DEFINITION_FORMATION_WITH_SPECIFIED_SOURCE(' ',' ',#26,
 .NOT_KNOWN.);
#25=PRODUCT_RELATED_PRODUCT_CATEGORY('part','',(#26));
#26=PRODUCT('100102507ugm000_b','100102507ugm000_b',' ',(#27));
#27=PRODUCT_CONTEXT(' ',#29,'mechanical');
#28=APPLICATION_PROTOCOL_DEFINITION('international standard',
'automotive_design',2010,#29);
#29=APPLICATION_CONTEXT(
'core data for automotive mechanical design processes');
#30=SHAPE_REPRESENTATION('100102507ugm000_b-None',(#386),#607);
#31=PRESENTATION_LAYER_ASSIGNMENT('1','Layer 1',(#40));
#32=STYLED_ITEM('',(#33),#40);
#33=PRESENTATION_STYLE_ASSIGNMENT((#34));
#34=SURFACE_STYLE_USAGE(.BOTH.,#35);
#35=SURFACE_SIDE_STYLE('',(#36));
#36=SURFACE_STYLE_FILL_AREA(#37);
#37=FILL_AREA_STYLE('',(#38));
#38=FILL_AREA_STYLE_COLOUR('',#39);
#39=COLOUR_RGB('ORANGE',1.,0.329991607537957,0.);
#40=MANIFOLD_SOLID_BREP('',#41);
#41=CLOSED_SHELL('',(#64,#65,#66,#67,#68,#69,#70,#71,#72,#73,#74,#75,#76,
#77,#78,#79,#80,#81));
#42=FACE_BOUND('',#108,.T.);
#43=FACE_BOUND('',#109,.T.);
#44=FACE_BOUND('',#110,.T.);
#45=FACE_BOUND('',#111,.T.);
#46=FACE_BOUND('',#115,.T.);
#47=FACE_BOUND('',#116,.T.);
#48=FACE_BOUND('',#119,.T.);
#49=FACE_BOUND('',#120,.T.);
#50=PLANE('',#393);
#51=PLANE('',#394);
#52=PLANE('',#398);
#53=PLANE('',#402);
#54=PLANE('',#403);
#55=PLANE('',#404);
#56=PLANE('',#405);
#57=PLANE('',#406);
#58=PLANE('',#407);
#59=PLANE('',#408);
#60=PLANE('',#409);
#61=PLANE('',#410);
#62=PLANE('',#411);
#63=PLANE('',#412);
#64=ADVANCED_FACE('',(#86),#82,.F.);
#65=ADVANCED_FACE('',(#87),#83,.F.);
#66=ADVANCED_FACE('',(#88),#50,.F.);
#67=ADVANCED_FACE('',(#89),#51,.F.);
#68=ADVANCED_FACE('',(#90),#84,.F.);
#69=ADVANCED_FACE('',(#91),#52,.F.);
#70=ADVANCED_FACE('',(#92),#85,.F.);
#71=ADVANCED_FACE('',(#93),#53,.T.);
#72=ADVANCED_FACE('',(#42,#43),#54,.T.);
#73=ADVANCED_FACE('',(#44,#45),#55,.T.);
#74=ADVANCED_FACE('',(#94),#56,.T.);
#75=ADVANCED_FACE('',(#95),#57,.F.);
#76=ADVANCED_FACE('',(#96),#58,.T.);
#77=ADVANCED_FACE('',(#46,#47),#59,.T.);
#78=ADVANCED_FACE('',(#97),#60,.T.);
#79=ADVANCED_FACE('',(#98),#61,.F.);
#80=ADVANCED_FACE('',(#48,#49),#62,.T.);
#81=ADVANCED_FACE('',(#99),#63,.F.);
#82=CYLINDRICAL_SURFACE('',#389,2.35);
#83=CYLINDRICAL_SURFACE('',#392,2.35);
#84=CYLINDRICAL_SURFACE('',#397,1.575);
#85=CYLINDRICAL_SURFACE('',#401,1.575);
#86=FACE_OUTER_BOUND('',#100,.T.);
#87=FACE_OUTER_BOUND('',#101,.T.);
#88=FACE_OUTER_BOUND('',#102,.T.);
#89=FACE_OUTER_BOUND('',#103,.T.);
#90=FACE_OUTER_BOUND('',#104,.T.);
#91=FACE_OUTER_BOUND('',#105,.T.);
#92=FACE_OUTER_BOUND('',#106,.T.);
#93=FACE_OUTER_BOUND('',#107,.T.);
#94=FACE_OUTER_BOUND('',#112,.T.);
#95=FACE_OUTER_BOUND('',#113,.T.);
#96=FACE_OUTER_BOUND('',#114,.T.);
#97=FACE_OUTER_BOUND('',#117,.T.);
#98=FACE_OUTER_BOUND('',#118,.T.);
#99=FACE_OUTER_BOUND('',#121,.T.);
#100=EDGE_LOOP('',(#130,#131,#132,#133));
#101=EDGE_LOOP('',(#134,#135,#136,#137));
#102=EDGE_LOOP('',(#138,#139,#140,#141));
#103=EDGE_LOOP('',(#142,#143,#144,#145));
#104=EDGE_LOOP('',(#146,#147,#148,#149));
#105=EDGE_LOOP('',(#150,#151,#152,#153));
#106=EDGE_LOOP('',(#154,#155,#156,#157));
#107=EDGE_LOOP('',(#158,#159,#160,#161));
#108=EDGE_LOOP('',(#162,#163,#164,#165));
#109=EDGE_LOOP('',(#166,#167,#168,#169));
#110=EDGE_LOOP('',(#170,#171,#172,#173));
#111=EDGE_LOOP('',(#174,#175,#176,#177,#178,#179));
#112=EDGE_LOOP('',(#180,#181,#182,#183));
#113=EDGE_LOOP('',(#184,#185,#186,#187));
#114=EDGE_LOOP('',(#188,#189,#190,#191,#192,#193));
#115=EDGE_LOOP('',(#194,#195,#196,#197));
#116=EDGE_LOOP('',(#198,#199,#200,#201));
#117=EDGE_LOOP('',(#202,#203,#204,#205,#206,#207));
#118=EDGE_LOOP('',(#208,#209,#210,#211));
#119=EDGE_LOOP('',(#212,#213,#214,#215));
#120=EDGE_LOOP('',(#216,#217,#218,#219,#220,#221));
#121=EDGE_LOOP('',(#222,#223,#224,#225));
#122=CIRCLE('',#387,2.35);
#123=CIRCLE('',#388,2.35);
#124=CIRCLE('',#390,2.35);
#125=CIRCLE('',#391,2.35);
#126=CIRCLE('',#395,1.575);
#127=CIRCLE('',#396,1.575);
#128=CIRCLE('',#399,1.575);
#129=CIRCLE('',#400,1.575);
#130=ORIENTED_EDGE('',*,*,#258,.T.);
#131=ORIENTED_EDGE('',*,*,#259,.F.);
#132=ORIENTED_EDGE('',*,*,#260,.T.);
#133=ORIENTED_EDGE('',*,*,#261,.F.);
#134=ORIENTED_EDGE('',*,*,#262,.F.);
#135=ORIENTED_EDGE('',*,*,#263,.F.);
#136=ORIENTED_EDGE('',*,*,#264,.T.);
#137=ORIENTED_EDGE('',*,*,#265,.F.);
#138=ORIENTED_EDGE('',*,*,#264,.F.);
#139=ORIENTED_EDGE('',*,*,#266,.F.);
#140=ORIENTED_EDGE('',*,*,#258,.F.);
#141=ORIENTED_EDGE('',*,*,#267,.F.);
#142=ORIENTED_EDGE('',*,*,#268,.F.);
#143=ORIENTED_EDGE('',*,*,#269,.F.);
#144=ORIENTED_EDGE('',*,*,#270,.T.);
#145=ORIENTED_EDGE('',*,*,#271,.F.);
#146=ORIENTED_EDGE('',*,*,#270,.F.);
#147=ORIENTED_EDGE('',*,*,#272,.F.);
#148=ORIENTED_EDGE('',*,*,#273,.T.);
#149=ORIENTED_EDGE('',*,*,#274,.F.);
#150=ORIENTED_EDGE('',*,*,#273,.F.);
#151=ORIENTED_EDGE('',*,*,#275,.F.);
#152=ORIENTED_EDGE('',*,*,#276,.F.);
#153=ORIENTED_EDGE('',*,*,#277,.F.);
#154=ORIENTED_EDGE('',*,*,#276,.T.);
#155=ORIENTED_EDGE('',*,*,#278,.F.);
#156=ORIENTED_EDGE('',*,*,#268,.T.);
#157=ORIENTED_EDGE('',*,*,#279,.F.);
#158=ORIENTED_EDGE('',*,*,#280,.T.);
#159=ORIENTED_EDGE('',*,*,#281,.T.);
#160=ORIENTED_EDGE('',*,*,#282,.T.);
#161=ORIENTED_EDGE('',*,*,#283,.T.);
#162=ORIENTED_EDGE('',*,*,#279,.T.);
#163=ORIENTED_EDGE('',*,*,#271,.T.);
#164=ORIENTED_EDGE('',*,*,#274,.T.);
#165=ORIENTED_EDGE('',*,*,#277,.T.);
#166=ORIENTED_EDGE('',*,*,#284,.T.);
#167=ORIENTED_EDGE('',*,*,#283,.F.);
#168=ORIENTED_EDGE('',*,*,#285,.T.);
#169=ORIENTED_EDGE('',*,*,#286,.F.);
#170=ORIENTED_EDGE('',*,*,#266,.T.);
#171=ORIENTED_EDGE('',*,*,#263,.T.);
#172=ORIENTED_EDGE('',*,*,#287,.T.);
#173=ORIENTED_EDGE('',*,*,#259,.T.);
#174=ORIENTED_EDGE('',*,*,#288,.T.);
#175=ORIENTED_EDGE('',*,*,#289,.F.);
#176=ORIENTED_EDGE('',*,*,#290,.T.);
#177=ORIENTED_EDGE('',*,*,#291,.T.);
#178=ORIENTED_EDGE('',*,*,#286,.T.);
#179=ORIENTED_EDGE('',*,*,#292,.T.);
#180=ORIENTED_EDGE('',*,*,#293,.T.);
#181=ORIENTED_EDGE('',*,*,#289,.T.);
#182=ORIENTED_EDGE('',*,*,#294,.T.);
#183=ORIENTED_EDGE('',*,*,#295,.F.);
#184=ORIENTED_EDGE('',*,*,#294,.F.);
#185=ORIENTED_EDGE('',*,*,#288,.F.);
#186=ORIENTED_EDGE('',*,*,#296,.F.);
#187=ORIENTED_EDGE('',*,*,#297,.F.);
#188=ORIENTED_EDGE('',*,*,#296,.T.);
#189=ORIENTED_EDGE('',*,*,#292,.F.);
#190=ORIENTED_EDGE('',*,*,#285,.F.);
#191=ORIENTED_EDGE('',*,*,#282,.F.);
#192=ORIENTED_EDGE('',*,*,#298,.F.);
#193=ORIENTED_EDGE('',*,*,#299,.F.);
#194=ORIENTED_EDGE('',*,*,#275,.T.);
#195=ORIENTED_EDGE('',*,*,#272,.T.);
#196=ORIENTED_EDGE('',*,*,#269,.T.);
#197=ORIENTED_EDGE('',*,*,#278,.T.);
#198=ORIENTED_EDGE('',*,*,#300,.T.);
#199=ORIENTED_EDGE('',*,*,#301,.T.);
#200=ORIENTED_EDGE('',*,*,#298,.T.);
#201=ORIENTED_EDGE('',*,*,#281,.F.);
#202=ORIENTED_EDGE('',*,*,#302,.T.);
#203=ORIENTED_EDGE('',*,*,#303,.F.);
#204=ORIENTED_EDGE('',*,*,#300,.F.);
#205=ORIENTED_EDGE('',*,*,#280,.F.);
#206=ORIENTED_EDGE('',*,*,#284,.F.);
#207=ORIENTED_EDGE('',*,*,#291,.F.);
#208=ORIENTED_EDGE('',*,*,#302,.F.);
#209=ORIENTED_EDGE('',*,*,#290,.F.);
#210=ORIENTED_EDGE('',*,*,#293,.F.);
#211=ORIENTED_EDGE('',*,*,#304,.F.);
#212=ORIENTED_EDGE('',*,*,#261,.T.);
#213=ORIENTED_EDGE('',*,*,#305,.T.);
#214=ORIENTED_EDGE('',*,*,#265,.T.);
#215=ORIENTED_EDGE('',*,*,#267,.T.);
#216=ORIENTED_EDGE('',*,*,#304,.T.);
#217=ORIENTED_EDGE('',*,*,#295,.T.);
#218=ORIENTED_EDGE('',*,*,#297,.T.);
#219=ORIENTED_EDGE('',*,*,#299,.T.);
#220=ORIENTED_EDGE('',*,*,#301,.F.);
#221=ORIENTED_EDGE('',*,*,#303,.T.);
#222=ORIENTED_EDGE('',*,*,#260,.F.);
#223=ORIENTED_EDGE('',*,*,#287,.F.);
#224=ORIENTED_EDGE('',*,*,#262,.T.);
#225=ORIENTED_EDGE('',*,*,#305,.F.);
#226=VERTEX_POINT('',#509);
#227=VERTEX_POINT('',#510);
#228=VERTEX_POINT('',#512);
#229=VERTEX_POINT('',#514);
#230=VERTEX_POINT('',#518);
#231=VERTEX_POINT('',#519);
#232=VERTEX_POINT('',#521);
#233=VERTEX_POINT('',#523);
#234=VERTEX_POINT('',#530);
#235=VERTEX_POINT('',#531);
#236=VERTEX_POINT('',#533);
#237=VERTEX_POINT('',#535);
#238=VERTEX_POINT('',#539);
#239=VERTEX_POINT('',#541);
#240=VERTEX_POINT('',#545);
#241=VERTEX_POINT('',#547);
#242=VERTEX_POINT('',#554);
#243=VERTEX_POINT('',#555);
#244=VERTEX_POINT('',#557);
#245=VERTEX_POINT('',#559);
#246=VERTEX_POINT('',#563);
#247=VERTEX_POINT('',#565);
#248=VERTEX_POINT('',#570);
#249=VERTEX_POINT('',#571);
#250=VERTEX_POINT('',#573);
#251=VERTEX_POINT('',#575);
#252=VERTEX_POINT('',#580);
#253=VERTEX_POINT('',#582);
#254=VERTEX_POINT('',#586);
#255=VERTEX_POINT('',#590);
#256=VERTEX_POINT('',#594);
#257=VERTEX_POINT('',#598);
#258=EDGE_CURVE('',#226,#227,#306,.T.);
#259=EDGE_CURVE('',#228,#227,#122,.T.);
#260=EDGE_CURVE('',#228,#229,#307,.T.);
#261=EDGE_CURVE('',#226,#229,#123,.T.);
#262=EDGE_CURVE('',#230,#231,#308,.T.);
#263=EDGE_CURVE('',#232,#230,#124,.T.);
#264=EDGE_CURVE('',#232,#233,#309,.T.);
#265=EDGE_CURVE('',#231,#233,#125,.T.);
#266=EDGE_CURVE('',#227,#232,#310,.T.);
#267=EDGE_CURVE('',#233,#226,#311,.T.);
#268=EDGE_CURVE('',#234,#235,#312,.T.);
#269=EDGE_CURVE('',#236,#234,#313,.T.);
#270=EDGE_CURVE('',#236,#237,#314,.T.);
#271=EDGE_CURVE('',#235,#237,#315,.T.);
#272=EDGE_CURVE('',#238,#236,#126,.T.);
#273=EDGE_CURVE('',#238,#239,#316,.T.);
#274=EDGE_CURVE('',#237,#239,#127,.T.);
#275=EDGE_CURVE('',#240,#238,#317,.T.);
#276=EDGE_CURVE('',#241,#240,#318,.T.);
#277=EDGE_CURVE('',#239,#241,#319,.T.);
#278=EDGE_CURVE('',#234,#240,#128,.T.);
#279=EDGE_CURVE('',#241,#235,#129,.T.);
#280=EDGE_CURVE('',#242,#243,#320,.T.);
#281=EDGE_CURVE('',#243,#244,#321,.T.);
#282=EDGE_CURVE('',#244,#245,#322,.T.);
#283=EDGE_CURVE('',#245,#242,#323,.T.);
#284=EDGE_CURVE('',#246,#242,#324,.T.);
#285=EDGE_CURVE('',#245,#247,#325,.T.);
#286=EDGE_CURVE('',#246,#247,#326,.T.);
#287=EDGE_CURVE('',#230,#228,#327,.T.);
#288=EDGE_CURVE('',#248,#249,#328,.T.);
#289=EDGE_CURVE('',#250,#249,#329,.T.);
#290=EDGE_CURVE('',#250,#251,#330,.T.);
#291=EDGE_CURVE('',#251,#246,#331,.T.);
#292=EDGE_CURVE('',#247,#248,#332,.T.);
#293=EDGE_CURVE('',#252,#250,#333,.T.);
#294=EDGE_CURVE('',#249,#253,#334,.T.);
#295=EDGE_CURVE('',#252,#253,#335,.T.);
#296=EDGE_CURVE('',#254,#248,#336,.T.);
#297=EDGE_CURVE('',#253,#254,#337,.T.);
#298=EDGE_CURVE('',#255,#244,#338,.T.);
#299=EDGE_CURVE('',#254,#255,#339,.T.);
#300=EDGE_CURVE('',#243,#256,#340,.T.);
#301=EDGE_CURVE('',#256,#255,#341,.T.);
#302=EDGE_CURVE('',#251,#257,#342,.T.);
#303=EDGE_CURVE('',#256,#257,#343,.T.);
#304=EDGE_CURVE('',#257,#252,#344,.T.);
#305=EDGE_CURVE('',#229,#231,#345,.T.);
#306=LINE('',#508,#346);
#307=LINE('',#513,#347);
#308=LINE('',#517,#348);
#309=LINE('',#522,#349);
#310=LINE('',#526,#350);
#311=LINE('',#527,#351);
#312=LINE('',#529,#352);
#313=LINE('',#532,#353);
#314=LINE('',#534,#354);
#315=LINE('',#536,#355);
#316=LINE('',#540,#356);
#317=LINE('',#544,#357);
#318=LINE('',#546,#358);
#319=LINE('',#548,#359);
#320=LINE('',#553,#360);
#321=LINE('',#556,#361);
#322=LINE('',#558,#362);
#323=LINE('',#560,#363);
#324=LINE('',#562,#364);
#325=LINE('',#564,#365);
#326=LINE('',#566,#366);
#327=LINE('',#568,#367);
#328=LINE('',#569,#368);
#329=LINE('',#572,#369);
#330=LINE('',#574,#370);
#331=LINE('',#576,#371);
#332=LINE('',#577,#372);
#333=LINE('',#579,#373);
#334=LINE('',#581,#374);
#335=LINE('',#583,#375);
#336=LINE('',#585,#376);
#337=LINE('',#587,#377);
#338=LINE('',#589,#378);
#339=LINE('',#591,#379);
#340=LINE('',#593,#380);
#341=LINE('',#595,#381);
#342=LINE('',#597,#382);
#343=LINE('',#599,#383);
#344=LINE('',#601,#384);
#345=LINE('',#603,#385);
#346=VECTOR('',#415,1.);
#347=VECTOR('',#418,1.);
#348=VECTOR('',#423,1.);
#349=VECTOR('',#426,1.);
#350=VECTOR('',#431,1.);
#351=VECTOR('',#432,1.);
#352=VECTOR('',#435,1.);
#353=VECTOR('',#436,1.);
#354=VECTOR('',#437,1.);
#355=VECTOR('',#438,1.);
#356=VECTOR('',#443,1.);
#357=VECTOR('',#448,1.);
#358=VECTOR('',#449,1.);
#359=VECTOR('',#450,1.);
#360=VECTOR('',#459,1.);
#361=VECTOR('',#460,1.);
#362=VECTOR('',#461,1.);
#363=VECTOR('',#462,1.);
#364=VECTOR('',#465,1.);
#365=VECTOR('',#466,1.);
#366=VECTOR('',#467,1.);
#367=VECTOR('',#470,1.);
#368=VECTOR('',#471,1.);
#369=VECTOR('',#472,1.);
#370=VECTOR('',#473,1.);
#371=VECTOR('',#474,1.);
#372=VECTOR('',#475,1.);
#373=VECTOR('',#478,1.);
#374=VECTOR('',#479,1.);
#375=VECTOR('',#480,1.);
#376=VECTOR('',#483,1.);
#377=VECTOR('',#484,1.);
#378=VECTOR('',#487,1.);
#379=VECTOR('',#488,1.);
#380=VECTOR('',#491,1.);
#381=VECTOR('',#492,1.);
#382=VECTOR('',#495,1.);
#383=VECTOR('',#496,1.);
#384=VECTOR('',#499,1.);
#385=VECTOR('',#502,1.);
#386=AXIS2_PLACEMENT_3D('',#507,#413,#414);
#387=AXIS2_PLACEMENT_3D('',#511,#416,#417);
#388=AXIS2_PLACEMENT_3D('',#515,#419,#420);
#389=AXIS2_PLACEMENT_3D('',#516,#421,#422);
#390=AXIS2_PLACEMENT_3D('',#520,#424,#425);
#391=AXIS2_PLACEMENT_3D('',#524,#427,#428);
#392=AXIS2_PLACEMENT_3D('',#525,#429,#430);
#393=AXIS2_PLACEMENT_3D('',#528,#433,#434);
#394=AXIS2_PLACEMENT_3D('',#537,#439,#440);
#395=AXIS2_PLACEMENT_3D('',#538,#441,#442);
#396=AXIS2_PLACEMENT_3D('',#542,#444,#445);
#397=AXIS2_PLACEMENT_3D('',#543,#446,#447);
#398=AXIS2_PLACEMENT_3D('',#549,#451,#452);
#399=AXIS2_PLACEMENT_3D('',#550,#453,#454);
#400=AXIS2_PLACEMENT_3D('',#551,#455,#456);
#401=AXIS2_PLACEMENT_3D('',#552,#457,#458);
#402=AXIS2_PLACEMENT_3D('',#561,#463,#464);
#403=AXIS2_PLACEMENT_3D('',#567,#468,#469);
#404=AXIS2_PLACEMENT_3D('',#578,#476,#477);
#405=AXIS2_PLACEMENT_3D('',#584,#481,#482);
#406=AXIS2_PLACEMENT_3D('',#588,#485,#486);
#407=AXIS2_PLACEMENT_3D('',#592,#489,#490);
#408=AXIS2_PLACEMENT_3D('',#596,#493,#494);
#409=AXIS2_PLACEMENT_3D('',#600,#497,#498);
#410=AXIS2_PLACEMENT_3D('',#602,#500,#501);
#411=AXIS2_PLACEMENT_3D('',#604,#503,#504);
#412=AXIS2_PLACEMENT_3D('',#605,#505,#506);
#413=DIRECTION('',(0.,0.,1.));
#414=DIRECTION('',(1.,0.,0.));
#415=DIRECTION('',(0.,1.,0.));
#416=DIRECTION('',(7.89485320374825E-016,-1.,4.00091692621855E-016));
#417=DIRECTION('',(0.742169016025101,3.69090101271661E-016,-0.670212765957448));
#418=DIRECTION('',(0.,-1.,0.));
#419=DIRECTION('',(-1.64244136088394E-016,1.,-2.53048699325806E-016));
#420=DIRECTION('',(0.742169016025102,3.69090101271661E-016,0.670212765957447));
#421=DIRECTION('',(-9.94937013398267E-017,-1.,2.75352932694731E-016));
#422=DIRECTION('',(0.742169016025103,-3.69090101271661E-016,-0.670212765957446));
#423=DIRECTION('',(-2.16840434497101E-016,-1.,-1.62630325872826E-016));
#424=DIRECTION('',(-7.89485320374826E-016,-1.,-4.00091692621857E-016));
#425=DIRECTION('',(-0.742169016025103,3.69090101271661E-016,0.670212765957446));
#426=DIRECTION('',(0.,-1.,5.42101086242752E-017));
#427=DIRECTION('',(5.39113835934827E-016,1.,-1.4152753248118E-016));
#428=DIRECTION('',(-0.742169016025103,3.69090101271661E-016,-0.670212765957446));
#429=DIRECTION('',(-1.13303847357945E-015,-1.,-2.75352932694731E-016));
#430=DIRECTION('',(-0.742169016025103,7.38180202543321E-016,0.670212765957446));
#431=DIRECTION('',(-1.,0.,-1.8649227465485E-016));
#432=DIRECTION('',(1.,0.,1.8649227465485E-016));
#433=DIRECTION('',(-1.8649227465485E-016,6.1125437327099E-032,1.));
#434=DIRECTION('',(-1.,0.,-1.86482773667507E-016));
#435=DIRECTION('',(-1.,0.,0.));
#436=DIRECTION('',(-2.37633352873535E-016,-1.,-5.94083382183838E-017));
#437=DIRECTION('',(-1.,1.8510768798533E-016,1.05775821705903E-016));
#438=DIRECTION('',(1.18816676436768E-016,1.,5.94083382183838E-017));
#439=DIRECTION('',(1.34002547535905E-032,5.94083382183838E-017,-1.));
#440=DIRECTION('',(-2.37657116208823E-016,-1.,-5.94142790522056E-017));
#441=DIRECTION('',(-1.,2.83549003839003E-016,1.17449842987186E-016));
#442=DIRECTION('',(0.,1.22532055049155E-014,1.));
#443=DIRECTION('',(-1.,1.8510768798533E-016,0.));
#444=DIRECTION('',(1.,-6.35900359253827E-016,-2.44758162395309E-016));
#445=DIRECTION('',(-2.75352932694731E-016,-1.18401761058734E-014,-1.));
#446=DIRECTION('',(-1.,7.08872509597505E-016,1.44358947625792E-016));
#447=DIRECTION('',(0.,1.21843672717419E-014,1.));
#448=DIRECTION('',(2.37633352873535E-016,1.,-5.94083382183838E-017));
#449=DIRECTION('',(1.,-2.11551643411806E-016,0.));
#450=DIRECTION('',(-1.18816676436768E-016,-1.,5.94083382183838E-017));
#451=DIRECTION('',(1.19113375587471E-032,5.94083382183838E-017,1.));
#452=DIRECTION('',(2.37657116208823E-016,1.,-5.94142790522056E-017));
#453=DIRECTION('',(-1.,5.67098007680852E-016,-3.49078387483561E-016));
#454=DIRECTION('',(5.50705865389463E-016,3.67430953387849E-012,-1.));
#455=DIRECTION('',(1.,-3.14549253787457E-017,6.11895405987573E-017));
#456=DIRECTION('',(-6.88382331736828E-017,1.21155290385682E-014,1.));
#457=DIRECTION('',(-1.,1.41774501920108E-016,-5.87249214934653E-017));
#458=DIRECTION('',(0.,3.67430953387849E-012,-1.));
#459=DIRECTION('',(1.,0.,0.));
#460=DIRECTION('',(0.,0.,1.));
#461=DIRECTION('',(-1.,0.,0.));
#462=DIRECTION('',(0.,0.,-1.));
#463=DIRECTION('',(0.,-1.,0.));
#464=DIRECTION('',(1.,0.,0.));
#465=DIRECTION('',(-6.06075748594381E-017,-1.,0.));
#466=DIRECTION('',(6.06075748594381E-017,1.,0.));
#467=DIRECTION('',(0.,0.,1.));
#468=DIRECTION('',(-1.,6.06075748594381E-017,0.));
#469=DIRECTION('',(-6.06069014419397E-017,-1.,0.));
#470=DIRECTION('',(1.,0.,1.24328183103233E-016));
#471=DIRECTION('',(0.984807753012208,0.,-0.173648177666931));
#472=DIRECTION('',(-4.56506177888633E-016,0.,1.));
#473=DIRECTION('',(-0.984807753012208,0.,-0.17364817766693));
#474=DIRECTION('',(-1.,0.,0.));
#475=DIRECTION('',(1.,0.,0.));
#476=DIRECTION('',(0.,1.,0.));
#477=DIRECTION('',(-1.,0.,0.));
#478=DIRECTION('',(0.,1.,-5.42101086242752E-017));
#479=DIRECTION('',(0.,-1.,5.42101086242752E-017));
#480=DIRECTION('',(4.56506177888633E-016,0.,1.));
#481=DIRECTION('',(1.,-4.33680868994202E-016,-8.71720339686838E-016));
#482=DIRECTION('',(4.33680868994202E-016,1.,0.));
#483=DIRECTION('',(0.,1.,0.));
#484=DIRECTION('',(-0.984807753012208,2.51026308632847E-016,0.173648177666931));
#485=DIRECTION('',(-0.173648177666931,-8.06961101973232E-017,-0.984807753012208));
#486=DIRECTION('',(0.984807753012208,0.,-0.173648177666931));
#487=DIRECTION('',(-2.15048364790513E-016,-1.,0.));
#488=DIRECTION('',(-1.,1.05883089996082E-016,0.));
#489=DIRECTION('',(0.,0.,1.));
#490=DIRECTION('',(1.,0.,0.));
#491=DIRECTION('',(2.15048364790513E-016,1.,0.));
#492=DIRECTION('',(0.,0.,1.));
#493=DIRECTION('',(1.,-2.15048364790513E-016,0.));
#494=DIRECTION('',(2.15105711021124E-016,1.,0.));
#495=DIRECTION('',(0.,-1.,0.));
#496=DIRECTION('',(1.,-1.05883089996082E-016,0.));
#497=DIRECTION('',(0.,0.,-1.));
#498=DIRECTION('',(1.,0.,0.));
#499=DIRECTION('',(0.984807753012208,-8.36754362109489E-017,0.17364817766693));
#500=DIRECTION('',(-0.17364817766693,-9.7263660962708E-017,0.984807753012208));
#501=DIRECTION('',(-0.984807753012208,0.,-0.17364817766693));
#502=DIRECTION('',(-1.,3.729845493097E-016,-1.24328183103233E-016));
#503=DIRECTION('',(-1.41417674672022E-016,-1.,0.));
#504=DIRECTION('',(1.,-1.4137996329211E-016,0.));
#505=DIRECTION('',(1.24328183103233E-016,-4.09704888850133E-017,-1.));
#506=DIRECTION('',(1.,0.,1.24249568966839E-016));
#507=CARTESIAN_POINT('',(0.,0.,0.));
#508=CARTESIAN_POINT('',(10.7880324310718,3.69852135926485,1.575));
#509=CARTESIAN_POINT('',(10.7880324310718,3.69852135926485,1.575));
#510=CARTESIAN_POINT('',(10.7880324310718,7.69852135926485,1.575));
#511=CARTESIAN_POINT('',(9.04393524341285,7.69852135926485,2.60208521396521E-015));
#512=CARTESIAN_POINT('',(10.7880324310718,7.69852135926485,-1.575));
#513=CARTESIAN_POINT('',(10.7880324310718,7.69852135926485,-1.575));
#514=CARTESIAN_POINT('',(10.7880324310718,3.69852135926485,-1.575));
#515=CARTESIAN_POINT('',(9.04393524341285,3.69852135926485,2.16840434497101E-015));
#516=CARTESIAN_POINT('',(9.04393524341285,7.69852135926485,-1.16234741887539E-015));
#517=CARTESIAN_POINT('',(7.29983805575386,7.69852135926485,-1.575));
#518=CARTESIAN_POINT('',(7.29983805575386,7.69852135926485,-1.575));
#519=CARTESIAN_POINT('',(7.29983805575387,3.69852135926485,-1.575));
#520=CARTESIAN_POINT('',(9.04393524341286,7.69852135926485,-1.0842021724855E-015));
#521=CARTESIAN_POINT('',(7.29983805575386,7.69852135926485,1.575));
#522=CARTESIAN_POINT('',(7.29983805575386,7.69852135926485,1.575));
#523=CARTESIAN_POINT('',(7.29983805575386,3.69852135926485,1.575));
#524=CARTESIAN_POINT('',(9.04393524341286,3.69852135926485,-1.30104260698261E-015));
#525=CARTESIAN_POINT('',(9.04393524341286,7.69852135926485,-5.72376057101416E-016));
#526=CARTESIAN_POINT('',(10.7880324310718,7.69852135926485,1.575));
#527=CARTESIAN_POINT('',(7.29983805575386,3.69852135926485,1.575));
#528=CARTESIAN_POINT('',(10.7880324310718,7.69852135926485,1.575));
#529=CARTESIAN_POINT('',(5.04393524341285,-4.20147864073515,-1.575));
#530=CARTESIAN_POINT('',(5.04393524341285,-4.20147864073515,-1.575));
#531=CARTESIAN_POINT('',(0.943935243412853,-4.20147864073129,-1.575));
#532=CARTESIAN_POINT('',(5.04393524341285,-0.551478640735149,-1.575));
#533=CARTESIAN_POINT('',(5.04393524341285,-0.551478640723572,-1.575));
#534=CARTESIAN_POINT('',(5.04393524341285,-0.551478640723572,-1.575));
#535=CARTESIAN_POINT('',(0.943935243412852,-0.551478640735148,-1.575));
#536=CARTESIAN_POINT('',(0.943935243412852,-4.20147864073515,-1.575));
#537=CARTESIAN_POINT('',(5.04393524341285,-0.551478640735149,-1.575));
#538=CARTESIAN_POINT('',(5.04393524341285,-0.551478640735148,-1.0842021724855E-015));
#539=CARTESIAN_POINT('',(5.04393524341285,-0.551478640735148,1.575));
#540=CARTESIAN_POINT('',(5.04393524341285,-0.551478640735148,1.575));
#541=CARTESIAN_POINT('',(0.943935243412853,-0.551478640735126,1.575));
#542=CARTESIAN_POINT('',(0.943935243412853,-0.551478640735146,-8.67361737988404E-016));
#543=CARTESIAN_POINT('',(5.04393524341285,-0.551478640735149,-1.39645101982653E-015));
#544=CARTESIAN_POINT('',(5.04393524341285,-4.20147864073515,1.575));
#545=CARTESIAN_POINT('',(5.04393524341285,-4.20147864073515,1.575));
#546=CARTESIAN_POINT('',(0.943935243412852,-4.20147864073515,1.575));
#547=CARTESIAN_POINT('',(0.943935243412852,-4.20147864073513,1.575));
#548=CARTESIAN_POINT('',(0.943935243412852,-0.551478640735148,1.575));
#549=CARTESIAN_POINT('',(5.04393524341285,-4.20147864073515,1.575));
#550=CARTESIAN_POINT('',(5.04393524341285,-4.20147864073515,0.));
#551=CARTESIAN_POINT('',(0.943935243412852,-4.20147864073515,-6.50521303491303E-016));
#552=CARTESIAN_POINT('',(5.04393524341285,-4.20147864073515,1.27022185656683E-016));
#553=CARTESIAN_POINT('',(0.943935243412852,-8.40147864073515,-2.8));
#554=CARTESIAN_POINT('',(0.943935243412852,-8.40147864073515,-2.8));
#555=CARTESIAN_POINT('',(5.04393524341285,-8.40147864073515,-2.8));
#556=CARTESIAN_POINT('',(5.04393524341285,-8.40147864073515,-2.8));
#557=CARTESIAN_POINT('',(5.04393524341285,-8.40147864073515,2.8));
#558=CARTESIAN_POINT('',(5.04393524341285,-8.40147864073515,2.8));
#559=CARTESIAN_POINT('',(0.943935243412852,-8.40147864073515,2.8));
#560=CARTESIAN_POINT('',(0.943935243412852,-8.40147864073515,2.8));
#561=CARTESIAN_POINT('',(0.943935243412852,-8.40147864073515,-2.8));
#562=CARTESIAN_POINT('',(0.943935243412853,7.69852135926485,-2.8));
#563=CARTESIAN_POINT('',(0.943935243412854,7.69852135926485,-2.8));
#564=CARTESIAN_POINT('',(0.943935243412852,-8.40147864073515,2.8));
#565=CARTESIAN_POINT('',(0.943935243412854,7.69852135926485,2.8));
#566=CARTESIAN_POINT('',(0.943935243412854,7.69852135926485,-2.8));
#567=CARTESIAN_POINT('',(0.943935243412853,7.69852135926485,-2.8));
#568=CARTESIAN_POINT('',(7.29983805575386,7.69852135926485,-1.575));
#569=CARTESIAN_POINT('',(9.13978160575692,7.69852135926485,2.8));
#570=CARTESIAN_POINT('',(9.13978160575692,7.69852135926485,2.8));
#571=CARTESIAN_POINT('',(14.2439352434129,7.69852135926485,1.9));
#572=CARTESIAN_POINT('',(14.2439352434129,7.69852135926485,-1.9));
#573=CARTESIAN_POINT('',(14.2439352434129,7.69852135926485,-1.9));
#574=CARTESIAN_POINT('',(14.2439352434129,7.69852135926485,-1.9));
#575=CARTESIAN_POINT('',(9.13978160575692,7.69852135926485,-2.8));
#576=CARTESIAN_POINT('',(9.13978160575692,7.69852135926485,-2.8));
#577=CARTESIAN_POINT('',(0.943935243412854,7.69852135926485,2.8));
#578=CARTESIAN_POINT('',(14.2439352434129,7.69852135926485,-2.8));
#579=CARTESIAN_POINT('',(14.2439352434129,3.69852135926485,-1.9));
#580=CARTESIAN_POINT('',(14.2439352434129,3.69852135926485,-1.9));
#581=CARTESIAN_POINT('',(14.2439352434129,7.69852135926485,1.9));
#582=CARTESIAN_POINT('',(14.2439352434129,3.69852135926485,1.9));
#583=CARTESIAN_POINT('',(14.2439352434129,3.69852135926485,-1.9));
#584=CARTESIAN_POINT('',(14.2439352434129,3.69852135926485,-1.99));
#585=CARTESIAN_POINT('',(9.13978160575692,3.69852135926485,2.8));
#586=CARTESIAN_POINT('',(9.13978160575692,3.69852135926485,2.8));
#587=CARTESIAN_POINT('',(14.2439352434129,3.69852135926485,1.9));
#588=CARTESIAN_POINT('',(9.13978160575692,7.69852135926485,2.8));
#589=CARTESIAN_POINT('',(5.04393524341285,3.69852135926485,2.8));
#590=CARTESIAN_POINT('',(5.04393524341285,3.69852135926485,2.8));
#591=CARTESIAN_POINT('',(9.13978160575692,3.69852135926485,2.8));
#592=CARTESIAN_POINT('',(0.278935243412852,-9.20647864073515,2.8));
#593=CARTESIAN_POINT('',(5.04393524341285,-8.40147864073515,-2.8));
#594=CARTESIAN_POINT('',(5.04393524341285,3.69852135926485,-2.8));
#595=CARTESIAN_POINT('',(5.04393524341285,3.69852135926485,-2.8));
#596=CARTESIAN_POINT('',(5.04393524341285,-8.40147864073515,-2.8));
#597=CARTESIAN_POINT('',(9.13978160575692,7.69852135926485,-2.8));
#598=CARTESIAN_POINT('',(9.13978160575692,3.69852135926485,-2.8));
#599=CARTESIAN_POINT('',(5.04393524341285,3.69852135926485,-2.8));
#600=CARTESIAN_POINT('',(0.278935243412852,8.50352135926485,-2.8));
#601=CARTESIAN_POINT('',(9.13978160575692,3.69852135926485,-2.8));
#602=CARTESIAN_POINT('',(14.2439352434129,7.69852135926485,-1.9));
#603=CARTESIAN_POINT('',(10.7880324310718,3.69852135926485,-1.575));
#604=CARTESIAN_POINT('',(5.04393524341285,3.69852135926485,-2.8));
#605=CARTESIAN_POINT('',(7.29983805575386,7.69852135926485,-1.575));
#606=MECHANICAL_DESIGN_GEOMETRIC_PRESENTATION_REPRESENTATION('',(#32),#607);
#607=(
GEOMETRIC_REPRESENTATION_CONTEXT(3)
GLOBAL_UNCERTAINTY_ASSIGNED_CONTEXT((#608))
GLOBAL_UNIT_ASSIGNED_CONTEXT((#614,#610,#609))
REPRESENTATION_CONTEXT('100102507ugm000_b','TOP_LEVEL_ASSEMBLY_PART')
);
#608=UNCERTAINTY_MEASURE_WITH_UNIT(LENGTH_MEASURE(2.E-005),#614,
'DISTANCE_ACCURACY_VALUE','Maximum Tolerance applied to model');
#609=(
NAMED_UNIT(*)
SI_UNIT($,.STERADIAN.)
SOLID_ANGLE_UNIT()
);
#610=(
CONVERSION_BASED_UNIT('DEGREE',#612)
NAMED_UNIT(#611)
PLANE_ANGLE_UNIT()
);
#611=DIMENSIONAL_EXPONENTS(0.,0.,0.,0.,0.,0.,0.);
#612=PLANE_ANGLE_MEASURE_WITH_UNIT(PLANE_ANGLE_MEASURE(0.0174532925),#613);
#613=(
NAMED_UNIT(*)
PLANE_ANGLE_UNIT()
SI_UNIT($,.RADIAN.)
);
#614=(
LENGTH_UNIT()
NAMED_UNIT(*)
SI_UNIT(.MILLI.,.METRE.)
);
ENDSEC;
END-ISO-10303-21;
