ISO-10303-21;
HEADER;
/* Generated by software containing ST-Developer
 * from STEP Tools, Inc. (www.steptools.com) 
 */
/* OPTION: using custom schema-name function */

FILE_DESCRIPTION(
/* description */ (''),
/* implementation_level */ '2;1');

FILE_NAME(
/* name */ '100123841ugm000_b.stp',
/* time_stamp */ '2016-09-28T10:50:47+02:00',
/* author */ (''),
/* organization */ (''),
/* preprocessor_version */ 'ST-DEVELOPER v16',
/* originating_system */ 'SIEMENS PLM Software NX 10.0',
/* authorisation */ '');

FILE_SCHEMA (('AUTOMOTIVE_DESIGN { 1 0 10303 214 3 1 1 1 }'));
ENDSEC;

DATA;
#10=PROPERTY_DEFINITION_REPRESENTATION(#14,#12);
#11=PROPERTY_DEFINITION_REPRESENTATION(#15,#13);
#12=REPRESENTATION('',(#16),#314);
#13=REPRESENTATION('',(#17),#314);
#14=PROPERTY_DEFINITION('pmi validation property','',#21);
#15=PROPERTY_DEFINITION('pmi validation property','',#21);
#16=VALUE_REPRESENTATION_ITEM('number of annotations',COUNT_MEASURE(0.));
#17=VALUE_REPRESENTATION_ITEM('number of views',COUNT_MEASURE(0.));
#18=SHAPE_REPRESENTATION_RELATIONSHIP('None',
'relationship between 100123841ugm000_b-None and 100123841ugm000_b-Non
e',#30,#19);
#19=ADVANCED_BREP_SHAPE_REPRESENTATION('100123841ugm000_b-None',(#40),#314);
#20=SHAPE_DEFINITION_REPRESENTATION(#21,#30);
#21=PRODUCT_DEFINITION_SHAPE('','',#22);
#22=PRODUCT_DEFINITION(' ','',#24,#23);
#23=PRODUCT_DEFINITION_CONTEXT('part definition',#29,'design');
#24=PRODUCT_DEFINITION_FORMATION_WITH_SPECIFIED_SOURCE(' ',' ',#26,
 .NOT_KNOWN.);
#25=PRODUCT_RELATED_PRODUCT_CATEGORY('part','',(#26));
#26=PRODUCT('100123841ugm000_b','100123841ugm000_b',' ',(#27));
#27=PRODUCT_CONTEXT(' ',#29,'mechanical');
#28=APPLICATION_PROTOCOL_DEFINITION('international standard',
'automotive_design',2010,#29);
#29=APPLICATION_CONTEXT(
'core data for automotive mechanical design processes');
#30=SHAPE_REPRESENTATION('100123841ugm000_b-None',(#179),#314);
#31=PRESENTATION_LAYER_ASSIGNMENT('1','Layer 1',(#40));
#32=STYLED_ITEM('',(#33),#40);
#33=PRESENTATION_STYLE_ASSIGNMENT((#34));
#34=SURFACE_STYLE_USAGE(.BOTH.,#35);
#35=SURFACE_SIDE_STYLE('',(#36));
#36=SURFACE_STYLE_FILL_AREA(#37);
#37=FILL_AREA_STYLE('',(#38));
#38=FILL_AREA_STYLE_COLOUR('',#39);
#39=COLOUR_RGB('ORANGE',1.,0.329991607537957,0.);
#40=MANIFOLD_SOLID_BREP('',#41);
#41=CLOSED_SHELL('',(#76,#77,#78,#79,#80,#81,#82,#83,#84,#85,#86,#87,#88));
#42=SPHERICAL_SURFACE('',#203,0.350000000000631);
#43=VERTEX_LOOP('',#154);
#44=(
BOUNDED_SURFACE()
B_SPLINE_SURFACE(2,2,((#290,#291,#292),(#293,#294,#295),(#296,#297,#298),
(#299,#300,#301),(#302,#303,#304),(#305,#306,#307),(#308,#309,#310)),
 .UNSPECIFIED.,.T.,.F.,.F.)
B_SPLINE_SURFACE_WITH_KNOTS((1,2,2,2,2,1),(3,3),(-0.333333333333333,0.,
0.333333333333333,0.666666666666667,1.,1.33333333333333),(0.,1.),
 .UNSPECIFIED.)
GEOMETRIC_REPRESENTATION_ITEM()
RATIONAL_B_SPLINE_SURFACE(((1.,0.934571064342889,1.),(0.5,0.467285532171444,
0.5),(1.,0.934571064342889,1.),(0.5,0.467285532171444,0.5),(1.,0.934571064342889,
1.),(0.5,0.467285532171444,0.5),(1.,0.934571064342889,1.)))
REPRESENTATION_ITEM('')
SURFACE()
);
#45=CYLINDRICAL_SURFACE('',#185,0.485000000000002);
#46=CYLINDRICAL_SURFACE('',#189,0.534999999999999);
#47=CYLINDRICAL_SURFACE('',#193,0.485);
#48=CYLINDRICAL_SURFACE('',#197,0.66);
#49=CYLINDRICAL_SURFACE('',#201,0.539999999999999);
#50=CONICAL_SURFACE('',#183,0.234999999999998,45.0000000000002);
#51=CONICAL_SURFACE('',#187,0.485000000000004,44.9999999999993);
#52=FACE_BOUND('',#95,.T.);
#53=FACE_BOUND('',#96,.T.);
#54=FACE_BOUND('',#97,.T.);
#55=FACE_BOUND('',#98,.T.);
#56=FACE_BOUND('',#99,.T.);
#57=FACE_BOUND('',#100,.T.);
#58=FACE_BOUND('',#101,.T.);
#59=FACE_BOUND('',#102,.T.);
#60=FACE_BOUND('',#103,.T.);
#61=FACE_BOUND('',#104,.T.);
#62=FACE_BOUND('',#105,.T.);
#63=FACE_BOUND('',#106,.T.);
#64=FACE_BOUND('',#107,.T.);
#65=FACE_BOUND('',#108,.T.);
#66=FACE_BOUND('',#109,.T.);
#67=FACE_BOUND('',#110,.T.);
#68=FACE_BOUND('',#111,.T.);
#69=FACE_BOUND('',#112,.T.);
#70=FACE_BOUND('',#113,.T.);
#71=FACE_BOUND('',#114,.T.);
#72=FACE_BOUND('',#115,.T.);
#73=FACE_BOUND('',#116,.T.);
#74=FACE_BOUND('',#43,.T.);
#75=FACE_BOUND('',#117,.T.);
#76=ADVANCED_FACE('',(#93),#89,.T.);
#77=ADVANCED_FACE('',(#52,#53),#50,.T.);
#78=ADVANCED_FACE('',(#54,#55),#45,.T.);
#79=ADVANCED_FACE('',(#56,#57),#51,.T.);
#80=ADVANCED_FACE('',(#58,#59),#46,.T.);
#81=ADVANCED_FACE('',(#60,#61),#90,.T.);
#82=ADVANCED_FACE('',(#62,#63),#47,.T.);
#83=ADVANCED_FACE('',(#64,#65),#91,.T.);
#84=ADVANCED_FACE('',(#66,#67),#48,.T.);
#85=ADVANCED_FACE('',(#68,#69),#92,.T.);
#86=ADVANCED_FACE('',(#70,#71),#49,.T.);
#87=ADVANCED_FACE('',(#72,#73),#44,.T.);
#88=ADVANCED_FACE('',(#74,#75),#42,.T.);
#89=PLANE('',#181);
#90=PLANE('',#191);
#91=PLANE('',#195);
#92=PLANE('',#199);
#93=FACE_OUTER_BOUND('',#94,.T.);
#94=EDGE_LOOP('',(#118));
#95=EDGE_LOOP('',(#119));
#96=EDGE_LOOP('',(#120));
#97=EDGE_LOOP('',(#121));
#98=EDGE_LOOP('',(#122));
#99=EDGE_LOOP('',(#123));
#100=EDGE_LOOP('',(#124));
#101=EDGE_LOOP('',(#125));
#102=EDGE_LOOP('',(#126));
#103=EDGE_LOOP('',(#127));
#104=EDGE_LOOP('',(#128));
#105=EDGE_LOOP('',(#129));
#106=EDGE_LOOP('',(#130));
#107=EDGE_LOOP('',(#131));
#108=EDGE_LOOP('',(#132));
#109=EDGE_LOOP('',(#133));
#110=EDGE_LOOP('',(#134));
#111=EDGE_LOOP('',(#135));
#112=EDGE_LOOP('',(#136));
#113=EDGE_LOOP('',(#137));
#114=EDGE_LOOP('',(#138));
#115=EDGE_LOOP('',(#139));
#116=EDGE_LOOP('',(#140));
#117=EDGE_LOOP('',(#141));
#118=ORIENTED_EDGE('',*,*,#155,.T.);
#119=ORIENTED_EDGE('',*,*,#156,.T.);
#120=ORIENTED_EDGE('',*,*,#155,.F.);
#121=ORIENTED_EDGE('',*,*,#157,.T.);
#122=ORIENTED_EDGE('',*,*,#156,.F.);
#123=ORIENTED_EDGE('',*,*,#158,.T.);
#124=ORIENTED_EDGE('',*,*,#157,.F.);
#125=ORIENTED_EDGE('',*,*,#159,.T.);
#126=ORIENTED_EDGE('',*,*,#158,.F.);
#127=ORIENTED_EDGE('',*,*,#160,.T.);
#128=ORIENTED_EDGE('',*,*,#159,.F.);
#129=ORIENTED_EDGE('',*,*,#161,.T.);
#130=ORIENTED_EDGE('',*,*,#160,.F.);
#131=ORIENTED_EDGE('',*,*,#161,.F.);
#132=ORIENTED_EDGE('',*,*,#162,.T.);
#133=ORIENTED_EDGE('',*,*,#163,.T.);
#134=ORIENTED_EDGE('',*,*,#162,.F.);
#135=ORIENTED_EDGE('',*,*,#164,.T.);
#136=ORIENTED_EDGE('',*,*,#163,.F.);
#137=ORIENTED_EDGE('',*,*,#165,.T.);
#138=ORIENTED_EDGE('',*,*,#164,.F.);
#139=ORIENTED_EDGE('',*,*,#166,.F.);
#140=ORIENTED_EDGE('',*,*,#165,.F.);
#141=ORIENTED_EDGE('',*,*,#166,.T.);
#142=VERTEX_POINT('',#256);
#143=VERTEX_POINT('',#259);
#144=VERTEX_POINT('',#262);
#145=VERTEX_POINT('',#265);
#146=VERTEX_POINT('',#268);
#147=VERTEX_POINT('',#271);
#148=VERTEX_POINT('',#274);
#149=VERTEX_POINT('',#277);
#150=VERTEX_POINT('',#280);
#151=VERTEX_POINT('',#283);
#152=VERTEX_POINT('',#286);
#153=VERTEX_POINT('',#289);
#154=VERTEX_POINT('',#311);
#155=EDGE_CURVE('',#142,#142,#167,.T.);
#156=EDGE_CURVE('',#143,#143,#168,.T.);
#157=EDGE_CURVE('',#144,#144,#169,.T.);
#158=EDGE_CURVE('',#145,#145,#170,.T.);
#159=EDGE_CURVE('',#146,#146,#171,.T.);
#160=EDGE_CURVE('',#147,#147,#172,.T.);
#161=EDGE_CURVE('',#148,#148,#173,.T.);
#162=EDGE_CURVE('',#149,#149,#174,.T.);
#163=EDGE_CURVE('',#150,#150,#175,.T.);
#164=EDGE_CURVE('',#151,#151,#176,.T.);
#165=EDGE_CURVE('',#152,#152,#177,.T.);
#166=EDGE_CURVE('',#153,#153,#178,.T.);
#167=CIRCLE('',#180,0.234999999999999);
#168=CIRCLE('',#182,0.484999999999999);
#169=CIRCLE('',#184,0.485000000000005);
#170=CIRCLE('',#186,0.535);
#171=CIRCLE('',#188,0.535);
#172=CIRCLE('',#190,0.485);
#173=CIRCLE('',#192,0.485);
#174=CIRCLE('',#194,0.66);
#175=CIRCLE('',#196,0.66);
#176=CIRCLE('',#198,0.539999999999999);
#177=CIRCLE('',#200,0.54);
#178=CIRCLE('',#202,0.246686184271288);
#179=AXIS2_PLACEMENT_3D('',#254,#204,#205);
#180=AXIS2_PLACEMENT_3D('',#255,#206,#207);
#181=AXIS2_PLACEMENT_3D('',#257,#208,#209);
#182=AXIS2_PLACEMENT_3D('',#258,#210,#211);
#183=AXIS2_PLACEMENT_3D('',#260,#212,#213);
#184=AXIS2_PLACEMENT_3D('',#261,#214,#215);
#185=AXIS2_PLACEMENT_3D('',#263,#216,#217);
#186=AXIS2_PLACEMENT_3D('',#264,#218,#219);
#187=AXIS2_PLACEMENT_3D('',#266,#220,#221);
#188=AXIS2_PLACEMENT_3D('',#267,#222,#223);
#189=AXIS2_PLACEMENT_3D('',#269,#224,#225);
#190=AXIS2_PLACEMENT_3D('',#270,#226,#227);
#191=AXIS2_PLACEMENT_3D('',#272,#228,#229);
#192=AXIS2_PLACEMENT_3D('',#273,#230,#231);
#193=AXIS2_PLACEMENT_3D('',#275,#232,#233);
#194=AXIS2_PLACEMENT_3D('',#276,#234,#235);
#195=AXIS2_PLACEMENT_3D('',#278,#236,#237);
#196=AXIS2_PLACEMENT_3D('',#279,#238,#239);
#197=AXIS2_PLACEMENT_3D('',#281,#240,#241);
#198=AXIS2_PLACEMENT_3D('',#282,#242,#243);
#199=AXIS2_PLACEMENT_3D('',#284,#244,#245);
#200=AXIS2_PLACEMENT_3D('',#285,#246,#247);
#201=AXIS2_PLACEMENT_3D('',#287,#248,#249);
#202=AXIS2_PLACEMENT_3D('',#288,#250,#251);
#203=AXIS2_PLACEMENT_3D('',#312,#252,#253);
#204=DIRECTION('',(0.,0.,1.));
#205=DIRECTION('',(1.,0.,0.));
#206=DIRECTION('',(2.73400075016047E-15,-1.,-2.84125692432561E-15));
#207=DIRECTION('',(1.,0.,6.83500187540117E-16));
#208=DIRECTION('',(0.,-1.,0.));
#209=DIRECTION('',(0.,0.,1.));
#210=DIRECTION('',(-1.85418690710592E-15,-1.,-1.47719416422151E-30));
#211=DIRECTION('',(1.,-3.57674943500373E-15,8.1120677185884E-16));
#212=DIRECTION('',(-2.4980018054066E-15,1.,-3.85185988877449E-31));
#213=DIRECTION('',(1.,2.57199049710677E-15,1.56125112837912E-16));
#214=DIRECTION('',(0.,-1.,0.));
#215=DIRECTION('',(1.,0.,5.72340738672614E-16));
#216=DIRECTION('',(0.,1.,0.));
#217=DIRECTION('',(1.,0.,9.53901231121029E-17));
#218=DIRECTION('',(0.,-1.,0.));
#219=DIRECTION('',(1.,0.,9.05961108556908E-16));
#220=DIRECTION('',(-8.85247366868904E-16,1.,-1.53329341668351E-15));
#221=DIRECTION('',(1.,8.72142919100592E-16,-9.45714598910544E-32));
#222=DIRECTION('',(-9.82219395490311E-16,-1.,1.15648231731787E-15));
#223=DIRECTION('',(1.,-1.62123689343627E-15,6.18718039765059E-16));
#224=DIRECTION('',(0.,1.,0.));
#225=DIRECTION('',(1.,0.,0.));
#226=DIRECTION('',(1.32472201296435E-15,-1.,-1.3766914994155E-15));
#227=DIRECTION('',(1.,1.78837471750186E-15,6.62361006482172E-16));
#228=DIRECTION('',(0.,1.,0.));
#229=DIRECTION('',(0.,0.,1.));
#230=DIRECTION('',(-1.18191023878512E-15,-1.,8.67361737988403E-16));
#231=DIRECTION('',(1.,-1.78837471750186E-15,5.2583805365547E-16));
#232=DIRECTION('',(-1.6826817716975E-15,1.,0.));
#233=DIRECTION('',(1.,1.78837471750186E-15,0.));
#234=DIRECTION('',(0.,-1.,0.));
#235=DIRECTION('',(1.,0.,4.86734982036141E-16));
#236=DIRECTION('',(0.,-1.,0.));
#237=DIRECTION('',(0.,0.,1.));
#238=DIRECTION('',(0.,-1.,0.));
#239=DIRECTION('',(1.,0.,6.44016090456389E-16));
#240=DIRECTION('',(5.00771532912386E-16,1.,8.67361737988403E-16));
#241=DIRECTION('',(1.,0.,0.));
#242=DIRECTION('',(-2.37959324551004E-16,-1.,1.23647292077133E-15));
#243=DIRECTION('',(1.,0.,5.94898311377508E-16));
#244=DIRECTION('',(0.,1.,0.));
#245=DIRECTION('',(0.,0.,1.));
#246=DIRECTION('',(8.92347467066259E-17,-1.,1.54559115096416E-16));
#247=DIRECTION('',(1.,0.,5.94898311377507E-16));
#248=DIRECTION('',(-4.75918649102006E-16,1.,7.35575652630877E-32));
#249=DIRECTION('',(1.,0.,-1.18979662275501E-16));
#250=DIRECTION('',(-5.77589245725246E-17,1.,3.26839907709897E-17));
#251=DIRECTION('',(1.,5.49383306410249E-17,0.));
#252=DIRECTION('',(5.27623706908205E-17,1.,2.43988332610666E-17));
#253=DIRECTION('',(1.,0.,8.68203695811491E-17));
#254=CARTESIAN_POINT('',(0.,0.,0.));
#255=CARTESIAN_POINT('',(6.23416249179165E-16,-10.25,-1.60622544071927E-16));
#256=CARTESIAN_POINT('',(0.235,-10.25,0.));
#257=CARTESIAN_POINT('',(0.258499999999999,-10.25,-0.258499999999999));
#258=CARTESIAN_POINT('',(6.50521303491303E-16,-10.,-3.93435284351537E-16));
#259=CARTESIAN_POINT('',(0.485,-10.,0.));
#260=CARTESIAN_POINT('',(1.07119174641567E-15,-10.25,-5.6205040621648E-17));
#261=CARTESIAN_POINT('',(1.62630325872826E-16,-8.95,-2.77585258256221E-16));
#262=CARTESIAN_POINT('',(0.485000000000005,-8.95,0.));
#263=CARTESIAN_POINT('',(5.96311194867027E-16,-10.,-4.62642097093701E-17));
#264=CARTESIAN_POINT('',(1.0842021724855E-16,-8.9,-4.84689193077945E-16));
#265=CARTESIAN_POINT('',(0.535,-8.9,0.));
#266=CARTESIAN_POINT('',(8.89492922160126E-16,-8.95,3.83323354170868E-17));
#267=CARTESIAN_POINT('',(1.0842021724855E-16,-7.4,-3.31014151274307E-16));
#268=CARTESIAN_POINT('',(0.535000000000001,-7.4,0.));
#269=CARTESIAN_POINT('',(8.67361737988404E-16,-8.9,0.));
#270=CARTESIAN_POINT('',(2.16840434497101E-16,-7.4,-3.21245088143854E-16));
#271=CARTESIAN_POINT('',(0.485,-7.4,0.));
#272=CARTESIAN_POINT('',(-0.588499999999999,-7.4,-0.5885));
#273=CARTESIAN_POINT('',(3.25260651745651E-16,-6.4,-2.55031456022903E-16));
#274=CARTESIAN_POINT('',(0.485,-6.4,0.));
#275=CARTESIAN_POINT('',(1.1666015375944E-15,-7.4,0.));
#276=CARTESIAN_POINT('',(2.16840434497101E-16,-6.4,-3.21245088143853E-16));
#277=CARTESIAN_POINT('',(0.66,-6.4,0.));
#278=CARTESIAN_POINT('',(0.726000000000001,-6.4,-0.726));
#279=CARTESIAN_POINT('',(0.,-5.9,-4.25050619701217E-16));
#280=CARTESIAN_POINT('',(0.66,-5.9,0.));
#281=CARTESIAN_POINT('',(6.33748637511757E-16,-6.4,-2.16840434497101E-16));
#282=CARTESIAN_POINT('',(0.,-5.9,-3.21245088143854E-16));
#283=CARTESIAN_POINT('',(0.539999999999999,-5.9,0.));
#284=CARTESIAN_POINT('',(-0.725999999999999,-5.9,-0.726));
#285=CARTESIAN_POINT('',(-4.33680868994202E-16,-0.750000000000001,-3.21245088143854E-16));
#286=CARTESIAN_POINT('',(0.54,-0.750000000000001,0.));
#287=CARTESIAN_POINT('',(1.55075117318332E-15,-5.9,6.42490176287705E-17));
#288=CARTESIAN_POINT('',(-5.42101086242752E-17,-0.101714022768758,0.));
#289=CARTESIAN_POINT('',(0.246686184271288,-0.101714022768758,0.));
#290=CARTESIAN_POINT('',(0.540000000000002,-0.750000000000001,0.));
#291=CARTESIAN_POINT('',(0.516739231728876,-0.370027032298817,0.));
#292=CARTESIAN_POINT('',(0.246686184271288,-0.101714022768758,0.));
#293=CARTESIAN_POINT('',(0.540000000000002,-0.75,-0.935307436087196));
#294=CARTESIAN_POINT('',(0.516739231728876,-0.370027032298819,-0.895018603618521));
#295=CARTESIAN_POINT('',(0.246686184271288,-0.101714022768758,-0.427273004683169));
#296=CARTESIAN_POINT('',(-0.270000000000001,-0.750000000000001,-0.467653718043598));
#297=CARTESIAN_POINT('',(-0.258369615864438,-0.370027032298817,-0.447509301809261));
#298=CARTESIAN_POINT('',(-0.123343092135644,-0.101714022768758,-0.213636502341585));
#299=CARTESIAN_POINT('',(-1.08,-0.75,-4.87890977618477E-16));
#300=CARTESIAN_POINT('',(-1.03347846345775,-0.370027032298819,-4.66874831374114E-16));
#301=CARTESIAN_POINT('',(-0.493372368542576,-0.101714022768758,-2.22881414090907E-16));
#302=CARTESIAN_POINT('',(-0.270000000000001,-0.750000000000001,0.467653718043598));
#303=CARTESIAN_POINT('',(-0.258369615864438,-0.370027032298817,0.447509301809261));
#304=CARTESIAN_POINT('',(-0.123343092135644,-0.101714022768758,0.213636502341584));
#305=CARTESIAN_POINT('',(0.540000000000001,-0.75,0.935307436087197));
#306=CARTESIAN_POINT('',(0.516739231728876,-0.370027032298819,0.895018603618522));
#307=CARTESIAN_POINT('',(0.246686184271288,-0.101714022768758,0.427273004683169));
#308=CARTESIAN_POINT('',(0.540000000000002,-0.750000000000001,0.));
#309=CARTESIAN_POINT('',(0.516739231728876,-0.370027032298817,0.));
#310=CARTESIAN_POINT('',(0.246686184271288,-0.101714022768758,0.));
#311=CARTESIAN_POINT('',(0.,0.,0.));
#312=CARTESIAN_POINT('',(-1.33573707650214E-13,-0.350000000000683,0.));
#313=MECHANICAL_DESIGN_GEOMETRIC_PRESENTATION_REPRESENTATION('',(#32),#314);
#314=(
GEOMETRIC_REPRESENTATION_CONTEXT(3)
GLOBAL_UNCERTAINTY_ASSIGNED_CONTEXT((#315))
GLOBAL_UNIT_ASSIGNED_CONTEXT((#321,#317,#316))
REPRESENTATION_CONTEXT('100123841ugm000_b','TOP_LEVEL_ASSEMBLY_PART')
);
#315=UNCERTAINTY_MEASURE_WITH_UNIT(LENGTH_MEASURE(2.E-5),#321,
'DISTANCE_ACCURACY_VALUE','Maximum Tolerance applied to model');
#316=(
NAMED_UNIT(*)
SI_UNIT($,.STERADIAN.)
SOLID_ANGLE_UNIT()
);
#317=(
CONVERSION_BASED_UNIT('DEGREE',#319)
NAMED_UNIT(#318)
PLANE_ANGLE_UNIT()
);
#318=DIMENSIONAL_EXPONENTS(0.,0.,0.,0.,0.,0.,0.);
#319=PLANE_ANGLE_MEASURE_WITH_UNIT(PLANE_ANGLE_MEASURE(0.0174532925),#320);
#320=(
NAMED_UNIT(*)
PLANE_ANGLE_UNIT()
SI_UNIT($,.RADIAN.)
);
#321=(
LENGTH_UNIT()
NAMED_UNIT(*)
SI_UNIT(.MILLI.,.METRE.)
);
ENDSEC;
END-ISO-10303-21;
