ISO-10303-21;
HEADER;
/* Generated by software containing ST-Developer
 * from STEP Tools, Inc. (www.steptools.com) 
 */
/* OPTION: using custom schema-name function */

FILE_DESCRIPTION(
/* description */ (''),
/* implementation_level */ '2;1');

FILE_NAME(
/* name */ '100122854ugm000_b.stp',
/* time_stamp */ '2014-11-03T08:30:10+01:00',
/* author */ (''),
/* organization */ (''),
/* preprocessor_version */ 'ST-DEVELOPER v15',
/* originating_system */ 'SIEMENS PLM Software NX 8.5',
/* authorisation */ '');

FILE_SCHEMA (('AUTOMOTIVE_DESIGN { 1 0 10303 214 3 1 1 1 }'));
ENDSEC;

DATA;
#10=GEOMETRICALLY_BOUNDED_WIREFRAME_SHAPE_REPRESENTATION(
'100122854ugm000_b-None',(#33),#409);
#11=PROPERTY_DEFINITION_REPRESENTATION(#15,#13);
#12=PROPERTY_DEFINITION_REPRESENTATION(#16,#14);
#13=REPRESENTATION('',(#17),#409);
#14=REPRESENTATION('',(#18),#409);
#15=PROPERTY_DEFINITION('pmi validation property','',#23);
#16=PROPERTY_DEFINITION('pmi validation property','',#23);
#17=VALUE_REPRESENTATION_ITEM('number of annotations',COUNT_MEASURE(0.));
#18=VALUE_REPRESENTATION_ITEM('number of views',COUNT_MEASURE(0.));
#19=SHAPE_REPRESENTATION_RELATIONSHIP('None',
'relationship between 100122854ugm000_b-None and 100122854ugm000_b-Non
e',#32,#21);
#20=SHAPE_REPRESENTATION_RELATIONSHIP('None',
'relationship between 100122854ugm000_b-None and 100122854ugm000_b-Non
e',#32,#10);
#21=ADVANCED_BREP_SHAPE_REPRESENTATION('100122854ugm000_b-None',(#39),#409);
#22=SHAPE_DEFINITION_REPRESENTATION(#23,#32);
#23=PRODUCT_DEFINITION_SHAPE('','',#24);
#24=PRODUCT_DEFINITION(' ','',#26,#25);
#25=PRODUCT_DEFINITION_CONTEXT('part definition',#31,'design');
#26=PRODUCT_DEFINITION_FORMATION_WITH_SPECIFIED_SOURCE(' ',' ',#28,
 .NOT_KNOWN.);
#27=PRODUCT_RELATED_PRODUCT_CATEGORY('part','',(#28));
#28=PRODUCT('100122854ugm000_b','100122854ugm000_b',' ',(#29));
#29=PRODUCT_CONTEXT(' ',#31,'mechanical');
#30=APPLICATION_PROTOCOL_DEFINITION('international standard',
'automotive_design',2010,#31);
#31=APPLICATION_CONTEXT(
'core data for automotive mechanical design processes');
#32=SHAPE_REPRESENTATION('100122854ugm000_b-None',(#263),#409);
#33=GEOMETRIC_CURVE_SET('None',(#347));
#34=SURFACE_STYLE_USAGE(.BOTH.,#35);
#35=SURFACE_SIDE_STYLE('',(#36));
#36=SURFACE_STYLE_FILL_AREA(#37);
#37=FILL_AREA_STYLE('',(#38));
#38=FILL_AREA_STYLE_COLOUR('',#262);
#39=MANIFOLD_SOLID_BREP('',#40);
#40=CLOSED_SHELL('',(#95,#96,#97,#98,#99,#100,#101,#102,#103,#104,#105,
#106));
#41=PLANE('',#271);
#42=PLANE('',#272);
#43=PLANE('',#274);
#44=PLANE('',#277);
#45=PLANE('',#278);
#46=PLANE('',#279);
#47=PLANE('',#280);
#48=PLANE('',#282);
#49=FACE_OUTER_BOUND('',#125,.T.);
#50=FACE_OUTER_BOUND('',#126,.T.);
#51=FACE_OUTER_BOUND('',#127,.T.);
#52=FACE_OUTER_BOUND('',#130,.T.);
#53=FACE_OUTER_BOUND('',#133,.T.);
#54=FACE_OUTER_BOUND('',#136,.T.);
#55=LINE('',#356,#75);
#56=LINE('',#360,#76);
#57=LINE('',#362,#77);
#58=LINE('',#364,#78);
#59=LINE('',#366,#79);
#60=LINE('',#370,#80);
#61=LINE('',#372,#81);
#62=LINE('',#374,#82);
#63=LINE('',#376,#83);
#64=LINE('',#379,#84);
#65=LINE('',#380,#85);
#66=LINE('',#384,#86);
#67=LINE('',#386,#87);
#68=LINE('',#390,#88);
#69=LINE('',#392,#89);
#70=LINE('',#394,#90);
#71=LINE('',#396,#91);
#72=LINE('',#398,#92);
#73=LINE('',#400,#93);
#74=LINE('',#402,#94);
#75=VECTOR('',#294,1.);
#76=VECTOR('',#297,1.);
#77=VECTOR('',#300,1.);
#78=VECTOR('',#301,1.);
#79=VECTOR('',#302,1.);
#80=VECTOR('',#305,1.);
#81=VECTOR('',#306,1.);
#82=VECTOR('',#307,1.);
#83=VECTOR('',#310,1.);
#84=VECTOR('',#311,1.);
#85=VECTOR('',#312,1.);
#86=VECTOR('',#317,1.);
#87=VECTOR('',#318,1.);
#88=VECTOR('',#323,1.);
#89=VECTOR('',#326,1.);
#90=VECTOR('',#327,1.);
#91=VECTOR('',#330,1.);
#92=VECTOR('',#331,1.);
#93=VECTOR('',#334,1.);
#94=VECTOR('',#337,1.);
#95=ADVANCED_FACE('',(#111,#112),#107,.F.);
#96=ADVANCED_FACE('',(#49),#108,.T.);
#97=ADVANCED_FACE('',(#50),#41,.T.);
#98=ADVANCED_FACE('',(#51),#42,.T.);
#99=ADVANCED_FACE('',(#113,#114),#43,.T.);
#100=ADVANCED_FACE('',(#52),#109,.F.);
#101=ADVANCED_FACE('',(#115,#116),#44,.T.);
#102=ADVANCED_FACE('',(#53),#45,.T.);
#103=ADVANCED_FACE('',(#117,#118),#46,.T.);
#104=ADVANCED_FACE('',(#54),#47,.T.);
#105=ADVANCED_FACE('',(#119,#120),#48,.T.);
#106=ADVANCED_FACE('',(#121,#122),#110,.F.);
#107=CYLINDRICAL_SURFACE('',#266,1.);
#108=CYLINDRICAL_SURFACE('',#269,2.3);
#109=CYLINDRICAL_SURFACE('',#276,0.800000000000003);
#110=CYLINDRICAL_SURFACE('',#283,1.);
#111=FACE_BOUND('',#123,.T.);
#112=FACE_BOUND('',#124,.T.);
#113=FACE_BOUND('',#128,.T.);
#114=FACE_BOUND('',#129,.T.);
#115=FACE_BOUND('',#131,.T.);
#116=FACE_BOUND('',#132,.T.);
#117=FACE_BOUND('',#134,.T.);
#118=FACE_BOUND('',#135,.T.);
#119=FACE_BOUND('',#137,.T.);
#120=FACE_BOUND('',#138,.T.);
#121=FACE_BOUND('',#139,.T.);
#122=FACE_BOUND('',#140,.T.);
#123=EDGE_LOOP('',(#141));
#124=EDGE_LOOP('',(#142));
#125=EDGE_LOOP('',(#143,#144,#145,#146));
#126=EDGE_LOOP('',(#147,#148,#149,#150,#151,#152,#153,#154));
#127=EDGE_LOOP('',(#155,#156,#157,#158));
#128=EDGE_LOOP('',(#159));
#129=EDGE_LOOP('',(#160,#161,#162,#163));
#130=EDGE_LOOP('',(#164,#165,#166,#167));
#131=EDGE_LOOP('',(#168));
#132=EDGE_LOOP('',(#169,#170,#171,#172));
#133=EDGE_LOOP('',(#173,#174,#175,#176));
#134=EDGE_LOOP('',(#177));
#135=EDGE_LOOP('',(#178,#179,#180,#181));
#136=EDGE_LOOP('',(#182,#183,#184,#185,#186,#187,#188,#189));
#137=EDGE_LOOP('',(#190));
#138=EDGE_LOOP('',(#191,#192,#193,#194));
#139=EDGE_LOOP('',(#195));
#140=EDGE_LOOP('',(#196));
#141=ORIENTED_EDGE('',*,*,#217,.F.);
#142=ORIENTED_EDGE('',*,*,#218,.F.);
#143=ORIENTED_EDGE('',*,*,#219,.T.);
#144=ORIENTED_EDGE('',*,*,#220,.F.);
#145=ORIENTED_EDGE('',*,*,#221,.T.);
#146=ORIENTED_EDGE('',*,*,#222,.F.);
#147=ORIENTED_EDGE('',*,*,#221,.F.);
#148=ORIENTED_EDGE('',*,*,#223,.F.);
#149=ORIENTED_EDGE('',*,*,#224,.F.);
#150=ORIENTED_EDGE('',*,*,#225,.F.);
#151=ORIENTED_EDGE('',*,*,#226,.F.);
#152=ORIENTED_EDGE('',*,*,#227,.F.);
#153=ORIENTED_EDGE('',*,*,#228,.F.);
#154=ORIENTED_EDGE('',*,*,#229,.F.);
#155=ORIENTED_EDGE('',*,*,#230,.T.);
#156=ORIENTED_EDGE('',*,*,#231,.T.);
#157=ORIENTED_EDGE('',*,*,#228,.T.);
#158=ORIENTED_EDGE('',*,*,#232,.F.);
#159=ORIENTED_EDGE('',*,*,#233,.T.);
#160=ORIENTED_EDGE('',*,*,#234,.T.);
#161=ORIENTED_EDGE('',*,*,#232,.T.);
#162=ORIENTED_EDGE('',*,*,#227,.T.);
#163=ORIENTED_EDGE('',*,*,#235,.F.);
#164=ORIENTED_EDGE('',*,*,#236,.T.);
#165=ORIENTED_EDGE('',*,*,#235,.T.);
#166=ORIENTED_EDGE('',*,*,#226,.T.);
#167=ORIENTED_EDGE('',*,*,#237,.F.);
#168=ORIENTED_EDGE('',*,*,#217,.T.);
#169=ORIENTED_EDGE('',*,*,#238,.T.);
#170=ORIENTED_EDGE('',*,*,#237,.T.);
#171=ORIENTED_EDGE('',*,*,#225,.T.);
#172=ORIENTED_EDGE('',*,*,#239,.F.);
#173=ORIENTED_EDGE('',*,*,#240,.T.);
#174=ORIENTED_EDGE('',*,*,#239,.T.);
#175=ORIENTED_EDGE('',*,*,#224,.T.);
#176=ORIENTED_EDGE('',*,*,#241,.F.);
#177=ORIENTED_EDGE('',*,*,#218,.T.);
#178=ORIENTED_EDGE('',*,*,#242,.T.);
#179=ORIENTED_EDGE('',*,*,#241,.T.);
#180=ORIENTED_EDGE('',*,*,#223,.T.);
#181=ORIENTED_EDGE('',*,*,#220,.T.);
#182=ORIENTED_EDGE('',*,*,#242,.F.);
#183=ORIENTED_EDGE('',*,*,#219,.F.);
#184=ORIENTED_EDGE('',*,*,#243,.F.);
#185=ORIENTED_EDGE('',*,*,#230,.F.);
#186=ORIENTED_EDGE('',*,*,#234,.F.);
#187=ORIENTED_EDGE('',*,*,#236,.F.);
#188=ORIENTED_EDGE('',*,*,#238,.F.);
#189=ORIENTED_EDGE('',*,*,#240,.F.);
#190=ORIENTED_EDGE('',*,*,#244,.T.);
#191=ORIENTED_EDGE('',*,*,#243,.T.);
#192=ORIENTED_EDGE('',*,*,#222,.T.);
#193=ORIENTED_EDGE('',*,*,#229,.T.);
#194=ORIENTED_EDGE('',*,*,#231,.F.);
#195=ORIENTED_EDGE('',*,*,#233,.F.);
#196=ORIENTED_EDGE('',*,*,#244,.F.);
#197=VERTEX_POINT('',#349);
#198=VERTEX_POINT('',#351);
#199=VERTEX_POINT('',#354);
#200=VERTEX_POINT('',#355);
#201=VERTEX_POINT('',#357);
#202=VERTEX_POINT('',#359);
#203=VERTEX_POINT('',#363);
#204=VERTEX_POINT('',#365);
#205=VERTEX_POINT('',#367);
#206=VERTEX_POINT('',#369);
#207=VERTEX_POINT('',#371);
#208=VERTEX_POINT('',#373);
#209=VERTEX_POINT('',#377);
#210=VERTEX_POINT('',#378);
#211=VERTEX_POINT('',#383);
#212=VERTEX_POINT('',#385);
#213=VERTEX_POINT('',#389);
#214=VERTEX_POINT('',#393);
#215=VERTEX_POINT('',#397);
#216=VERTEX_POINT('',#405);
#217=EDGE_CURVE('',#197,#197,#245,.T.);
#218=EDGE_CURVE('',#198,#198,#246,.T.);
#219=EDGE_CURVE('',#199,#200,#247,.T.);
#220=EDGE_CURVE('',#201,#200,#55,.T.);
#221=EDGE_CURVE('',#201,#202,#248,.T.);
#222=EDGE_CURVE('',#199,#202,#56,.T.);
#223=EDGE_CURVE('',#203,#201,#57,.T.);
#224=EDGE_CURVE('',#204,#203,#58,.T.);
#225=EDGE_CURVE('',#205,#204,#59,.T.);
#226=EDGE_CURVE('',#206,#205,#249,.T.);
#227=EDGE_CURVE('',#207,#206,#60,.T.);
#228=EDGE_CURVE('',#208,#207,#61,.T.);
#229=EDGE_CURVE('',#202,#208,#62,.T.);
#230=EDGE_CURVE('',#209,#210,#63,.T.);
#231=EDGE_CURVE('',#210,#208,#64,.T.);
#232=EDGE_CURVE('',#209,#207,#65,.T.);
#233=EDGE_CURVE('',#211,#211,#250,.T.);
#234=EDGE_CURVE('',#212,#209,#66,.T.);
#235=EDGE_CURVE('',#212,#206,#67,.T.);
#236=EDGE_CURVE('',#213,#212,#251,.T.);
#237=EDGE_CURVE('',#213,#205,#68,.T.);
#238=EDGE_CURVE('',#214,#213,#69,.T.);
#239=EDGE_CURVE('',#214,#204,#70,.T.);
#240=EDGE_CURVE('',#215,#214,#71,.T.);
#241=EDGE_CURVE('',#215,#203,#72,.T.);
#242=EDGE_CURVE('',#200,#215,#73,.T.);
#243=EDGE_CURVE('',#210,#199,#74,.T.);
#244=EDGE_CURVE('',#216,#216,#252,.T.);
#245=CIRCLE('',#264,1.);
#246=CIRCLE('',#265,1.);
#247=CIRCLE('',#267,2.3);
#248=CIRCLE('',#268,2.3);
#249=CIRCLE('',#270,0.800000000000001);
#250=CIRCLE('',#273,1.);
#251=CIRCLE('',#275,0.800000000000002);
#252=CIRCLE('',#281,1.);
#253=PRESENTATION_LAYER_ASSIGNMENT('130','Layer 130',(#347));
#254=PRESENTATION_LAYER_ASSIGNMENT('1','Layer 1',(#39));
#255=STYLED_ITEM('',(#257),#347);
#256=STYLED_ITEM('',(#258),#39);
#257=PRESENTATION_STYLE_ASSIGNMENT((#259));
#258=PRESENTATION_STYLE_ASSIGNMENT((#34));
#259=POINT_STYLE('',#260,POSITIVE_LENGTH_MEASURE(3.),#261);
#260=PRE_DEFINED_POINT_MARKER_SYMBOL('plus');
#261=DRAUGHTING_PRE_DEFINED_COLOUR('yellow');
#262=DRAUGHTING_PRE_DEFINED_COLOUR('red');
#263=AXIS2_PLACEMENT_3D('',#346,#284,#285);
#264=AXIS2_PLACEMENT_3D('',#348,#286,#287);
#265=AXIS2_PLACEMENT_3D('',#350,#288,#289);
#266=AXIS2_PLACEMENT_3D('',#352,#290,#291);
#267=AXIS2_PLACEMENT_3D('',#353,#292,#293);
#268=AXIS2_PLACEMENT_3D('',#358,#295,#296);
#269=AXIS2_PLACEMENT_3D('',#361,#298,#299);
#270=AXIS2_PLACEMENT_3D('',#368,#303,#304);
#271=AXIS2_PLACEMENT_3D('',#375,#308,#309);
#272=AXIS2_PLACEMENT_3D('',#381,#313,#314);
#273=AXIS2_PLACEMENT_3D('',#382,#315,#316);
#274=AXIS2_PLACEMENT_3D('',#387,#319,#320);
#275=AXIS2_PLACEMENT_3D('',#388,#321,#322);
#276=AXIS2_PLACEMENT_3D('',#391,#324,#325);
#277=AXIS2_PLACEMENT_3D('',#395,#328,#329);
#278=AXIS2_PLACEMENT_3D('',#399,#332,#333);
#279=AXIS2_PLACEMENT_3D('',#401,#335,#336);
#280=AXIS2_PLACEMENT_3D('',#403,#338,#339);
#281=AXIS2_PLACEMENT_3D('',#404,#340,#341);
#282=AXIS2_PLACEMENT_3D('',#406,#342,#343);
#283=AXIS2_PLACEMENT_3D('',#407,#344,#345);
#284=DIRECTION('',(0.,0.,1.));
#285=DIRECTION('',(1.,0.,0.));
#286=DIRECTION('',(-1.,0.,0.));
#287=DIRECTION('',(0.,1.,-2.20990007304775E-015));
#288=DIRECTION('',(1.,3.85494105772623E-016,-6.67695377216515E-016));
#289=DIRECTION('',(-4.33680868994201E-016,0.999999999999999,-6.42490176287706E-016));
#290=DIRECTION('',(-1.,0.,0.));
#291=DIRECTION('',(0.,1.,-2.20990007304775E-015));
#292=DIRECTION('',(0.,0.,1.));
#293=DIRECTION('',(1.50845519650157E-015,1.,0.));
#294=DIRECTION('',(0.,0.,-1.));
#295=DIRECTION('',(0.,0.,-1.));
#296=DIRECTION('',(-1.,-1.13134139737618E-015,0.));
#297=DIRECTION('',(0.,0.,1.));
#298=DIRECTION('',(0.,0.,1.));
#299=DIRECTION('',(1.50845519650157E-015,1.,0.));
#300=DIRECTION('',(1.39897054514259E-016,1.,0.));
#301=DIRECTION('',(-1.,0.,0.));
#302=DIRECTION('',(-1.39897054514259E-016,-1.,0.));
#303=DIRECTION('',(-1.91661677085422E-016,7.93888660359541E-017,1.));
#304=DIRECTION('',(-1.0842021724855E-015,1.,0.));
#305=DIRECTION('',(-1.,0.,0.));
#306=DIRECTION('',(-7.26270895275623E-013,-1.,0.));
#307=DIRECTION('',(1.,0.,0.));
#308=DIRECTION('',(0.,0.,1.));
#309=DIRECTION('',(1.,0.,0.));
#310=DIRECTION('',(7.26270895275623E-013,1.,0.));
#311=DIRECTION('',(0.,0.,1.));
#312=DIRECTION('',(0.,0.,1.));
#313=DIRECTION('',(1.,-7.26270895275623E-013,0.));
#314=DIRECTION('',(7.26271473516782E-013,1.,0.));
#315=DIRECTION('',(6.79536414315343E-016,1.,-3.68896244177919E-031));
#316=DIRECTION('',(1.,-8.67361737988403E-016,-5.09652310736507E-016));
#317=DIRECTION('',(1.,0.,0.));
#318=DIRECTION('',(1.73472347597681E-016,0.,1.));
#319=DIRECTION('',(0.,-1.,0.));
#320=DIRECTION('',(1.,0.,0.));
#321=DIRECTION('',(-5.09217141229238E-016,5.74985031256264E-016,-1.));
#322=DIRECTION('',(-1.,-1.0842021724855E-015,5.42101086242751E-016));
#323=DIRECTION('',(0.,0.,1.));
#324=DIRECTION('',(-1.91661677085422E-016,1.91661677085421E-016,-1.));
#325=DIRECTION('',(-1.,-1.0842021724855E-015,0.));
#326=DIRECTION('',(1.39897054514259E-016,1.,0.));
#327=DIRECTION('',(0.,0.,1.));
#328=DIRECTION('',(1.,-1.39897054514259E-016,0.));
#329=DIRECTION('',(1.39645239816133E-016,1.,0.));
#330=DIRECTION('',(1.,0.,0.));
#331=DIRECTION('',(0.,0.,1.));
#332=DIRECTION('',(0.,-1.,0.));
#333=DIRECTION('',(1.,0.,0.));
#334=DIRECTION('',(-1.39897054514259E-016,-1.,0.));
#335=DIRECTION('',(-1.,1.39897054514259E-016,0.));
#336=DIRECTION('',(-1.40078920685127E-016,-1.,0.));
#337=DIRECTION('',(-1.,0.,0.));
#338=DIRECTION('',(0.,0.,-1.));
#339=DIRECTION('',(1.,0.,0.));
#340=DIRECTION('',(-8.99486246802788E-016,-1.,-6.67695377216513E-016));
#341=DIRECTION('',(1.,-8.673617379884E-016,-6.42490176287706E-016));
#342=DIRECTION('',(0.,1.,0.));
#343=DIRECTION('',(-1.,0.,0.));
#344=DIRECTION('',(9.92959420636132E-016,1.,5.42864571208585E-016));
#345=DIRECTION('',(1.,-8.67361737988402E-016,-1.10424667326243E-015));
#346=CARTESIAN_POINT('',(0.,0.,0.));
#347=CARTESIAN_POINT('CS1',(0.,0.,0.));
#348=CARTESIAN_POINT('',(4.4617859184742,-9.89493709281087,2.20990007304775E-015));
#349=CARTESIAN_POINT('',(4.4617859184742,-8.89493709281087,1.54074395550979E-030));
#350=CARTESIAN_POINT('',(2.9617859184742,-9.89493709281087,6.42490176287707E-016));
#351=CARTESIAN_POINT('',(2.9617859184742,-8.89493709281087,1.92592994438724E-031));
#352=CARTESIAN_POINT('',(4.4617859184742,-9.89493709281087,2.20990007304775E-015));
#353=CARTESIAN_POINT('',(5.26178591847419,-7.09493709281087,-2.5));
#354=CARTESIAN_POINT('',(5.2617859184742,-4.79493709281087,-2.5));
#355=CARTESIAN_POINT('',(2.9617859184742,-7.09493709281087,-2.5));
#356=CARTESIAN_POINT('',(2.9617859184742,-7.09493709281087,2.5));
#357=CARTESIAN_POINT('',(2.9617859184742,-7.09493709281087,2.5));
#358=CARTESIAN_POINT('',(5.26178591847419,-7.09493709281087,2.5));
#359=CARTESIAN_POINT('',(5.2617859184742,-4.79493709281087,2.5));
#360=CARTESIAN_POINT('',(5.2617859184742,-4.79493709281087,-2.5));
#361=CARTESIAN_POINT('',(5.26178591847419,-7.09493709281087,-2.5));
#362=CARTESIAN_POINT('',(2.96178591847419,-13.2949370928109,2.5));
#363=CARTESIAN_POINT('',(2.96178591847419,-13.2949370928109,2.5));
#364=CARTESIAN_POINT('',(4.4617859184742,-13.2949370928109,2.5));
#365=CARTESIAN_POINT('',(4.4617859184742,-13.2949370928109,2.5));
#366=CARTESIAN_POINT('',(4.4617859184742,-7.09493709281087,2.5));
#367=CARTESIAN_POINT('',(4.4617859184742,-7.09493709281087,2.5));
#368=CARTESIAN_POINT('',(5.2617859184742,-7.09493709281087,2.5));
#369=CARTESIAN_POINT('',(5.2617859184742,-6.29493709281087,2.5));
#370=CARTESIAN_POINT('',(9.86178591847311,-6.29493709281087,2.5));
#371=CARTESIAN_POINT('',(9.86178591847311,-6.29493709281087,2.5));
#372=CARTESIAN_POINT('',(9.8617859184742,-4.79493709281087,2.5));
#373=CARTESIAN_POINT('',(9.8617859184742,-4.79493709281087,2.5));
#374=CARTESIAN_POINT('',(5.2617859184742,-4.79493709281087,2.5));
#375=CARTESIAN_POINT('',(2.61678591847419,-13.7199370928109,2.5));
#376=CARTESIAN_POINT('',(9.86178591847311,-6.29493709281087,-2.5));
#377=CARTESIAN_POINT('',(9.86178591847311,-6.29493709281087,-2.5));
#378=CARTESIAN_POINT('',(9.8617859184742,-4.79493709281087,-2.5));
#379=CARTESIAN_POINT('',(9.8617859184742,-4.79493709281087,-2.5));
#380=CARTESIAN_POINT('',(9.86178591847311,-6.29493709281087,-2.5));
#381=CARTESIAN_POINT('',(9.86178591847311,-6.29493709281087,-2.5));
#382=CARTESIAN_POINT('',(6.56178591847419,-6.29493709281087,9.13785754455002E-016));
#383=CARTESIAN_POINT('',(7.56178591847419,-6.29493709281087,4.04133443718494E-016));
#384=CARTESIAN_POINT('',(5.2617859184742,-6.29493709281087,-2.5));
#385=CARTESIAN_POINT('',(5.2617859184742,-6.29493709281087,-2.5));
#386=CARTESIAN_POINT('',(5.2617859184742,-6.29493709281087,-2.5));
#387=CARTESIAN_POINT('',(5.2617859184742,-6.29493709281087,-2.5));
#388=CARTESIAN_POINT('',(5.2617859184742,-7.09493709281087,-2.5));
#389=CARTESIAN_POINT('',(4.4617859184742,-7.09493709281087,-2.5));
#390=CARTESIAN_POINT('',(4.4617859184742,-7.09493709281087,-2.5));
#391=CARTESIAN_POINT('',(5.2617859184742,-7.09493709281087,2.5));
#392=CARTESIAN_POINT('',(4.4617859184742,-13.2949370928109,-2.5));
#393=CARTESIAN_POINT('',(4.4617859184742,-13.2949370928109,-2.5));
#394=CARTESIAN_POINT('',(4.4617859184742,-13.2949370928109,-2.5));
#395=CARTESIAN_POINT('',(4.4617859184742,-13.2949370928109,-2.5));
#396=CARTESIAN_POINT('',(2.96178591847419,-13.2949370928109,-2.5));
#397=CARTESIAN_POINT('',(2.96178591847419,-13.2949370928109,-2.5));
#398=CARTESIAN_POINT('',(2.96178591847419,-13.2949370928109,-2.5));
#399=CARTESIAN_POINT('',(2.96178591847419,-13.2949370928109,-2.5));
#400=CARTESIAN_POINT('',(2.9617859184742,-7.09493709281087,-2.5));
#401=CARTESIAN_POINT('',(2.9617859184742,-7.09493709281087,-2.5));
#402=CARTESIAN_POINT('',(9.8617859184742,-4.79493709281087,-2.5));
#403=CARTESIAN_POINT('',(2.61678591847419,-4.36993709281087,-2.5));
#404=CARTESIAN_POINT('',(6.56178591847419,-4.79493709281087,1.42723960782488E-015));
#405=CARTESIAN_POINT('',(7.5617859184742,-4.79493709281087,7.84749431537169E-016));
#406=CARTESIAN_POINT('',(9.8617859184742,-4.79493709281087,-2.5));
#407=CARTESIAN_POINT('',(6.56178591847419,-6.29493709281087,1.07469924798673E-015));
#408=MECHANICAL_DESIGN_GEOMETRIC_PRESENTATION_REPRESENTATION('',(#255,#256),
#409);
#409=(
GEOMETRIC_REPRESENTATION_CONTEXT(3)
GLOBAL_UNCERTAINTY_ASSIGNED_CONTEXT((#410))
GLOBAL_UNIT_ASSIGNED_CONTEXT((#416,#412,#411))
REPRESENTATION_CONTEXT('100122854ugm000_b','TOP_LEVEL_ASSEMBLY_PART')
);
#410=UNCERTAINTY_MEASURE_WITH_UNIT(LENGTH_MEASURE(2.E-005),#416,
'DISTANCE_ACCURACY_VALUE','Maximum Tolerance applied to model');
#411=(
NAMED_UNIT(*)
SI_UNIT($,.STERADIAN.)
SOLID_ANGLE_UNIT()
);
#412=(
CONVERSION_BASED_UNIT('DEGREE',#414)
NAMED_UNIT(#413)
PLANE_ANGLE_UNIT()
);
#413=DIMENSIONAL_EXPONENTS(0.,0.,0.,0.,0.,0.,0.);
#414=PLANE_ANGLE_MEASURE_WITH_UNIT(PLANE_ANGLE_MEASURE(0.0174532925),#415);
#415=(
NAMED_UNIT(*)
PLANE_ANGLE_UNIT()
SI_UNIT($,.RADIAN.)
);
#416=(
LENGTH_UNIT()
NAMED_UNIT(*)
SI_UNIT(.MILLI.,.METRE.)
);
ENDSEC;
END-ISO-10303-21;
