ISO-10303-21;
HEADER;
/* Generated by software containing ST-Developer
 * from STEP Tools, Inc. (www.steptools.com) 
 */
/* OPTION: using custom schema-name function */

FILE_DESCRIPTION(
/* description */ (''),
/* implementation_level */ '2;1');

FILE_NAME(
/* name */ '100122904ugm000_b.stp',
/* time_stamp */ '2016-09-28T10:49:38+02:00',
/* author */ (''),
/* organization */ (''),
/* preprocessor_version */ 'ST-DEVELOPER v16',
/* originating_system */ 'SIEMENS PLM Software NX 10.0',
/* authorisation */ '');

FILE_SCHEMA (('AUTOMOTIVE_DESIGN { 1 0 10303 214 3 1 1 1 }'));
ENDSEC;

DATA;
#10=PROPERTY_DEFINITION_REPRESENTATION(#14,#12);
#11=PROPERTY_DEFINITION_REPRESENTATION(#15,#13);
#12=REPRESENTATION('',(#16),#456);
#13=REPRESENTATION('',(#17),#456);
#14=PROPERTY_DEFINITION('pmi validation property','',#21);
#15=PROPERTY_DEFINITION('pmi validation property','',#21);
#16=VALUE_REPRESENTATION_ITEM('number of annotations',COUNT_MEASURE(0.));
#17=VALUE_REPRESENTATION_ITEM('number of views',COUNT_MEASURE(0.));
#18=SHAPE_REPRESENTATION_RELATIONSHIP('None',
'relationship between 100122904ugm000_b-None and 100122904ugm000_b-Non
e',#30,#19);
#19=ADVANCED_BREP_SHAPE_REPRESENTATION('100122904ugm000_b-None',(#40),#456);
#20=SHAPE_DEFINITION_REPRESENTATION(#21,#30);
#21=PRODUCT_DEFINITION_SHAPE('','',#22);
#22=PRODUCT_DEFINITION(' ','',#24,#23);
#23=PRODUCT_DEFINITION_CONTEXT('part definition',#29,'design');
#24=PRODUCT_DEFINITION_FORMATION_WITH_SPECIFIED_SOURCE(' ',' ',#26,
 .NOT_KNOWN.);
#25=PRODUCT_RELATED_PRODUCT_CATEGORY('part','',(#26));
#26=PRODUCT('100122904ugm000_b','100122904ugm000_b',' ',(#27));
#27=PRODUCT_CONTEXT(' ',#29,'mechanical');
#28=APPLICATION_PROTOCOL_DEFINITION('international standard',
'automotive_design',2010,#29);
#29=APPLICATION_CONTEXT(
'core data for automotive mechanical design processes');
#30=SHAPE_REPRESENTATION('100122904ugm000_b-None',(#299),#456);
#31=PRESENTATION_LAYER_ASSIGNMENT('1','Layer 1',(#40));
#32=STYLED_ITEM('',(#33),#40);
#33=PRESENTATION_STYLE_ASSIGNMENT((#34));
#34=SURFACE_STYLE_USAGE(.BOTH.,#35);
#35=SURFACE_SIDE_STYLE('',(#36));
#36=SURFACE_STYLE_FILL_AREA(#37);
#37=FILL_AREA_STYLE('',(#38));
#38=FILL_AREA_STYLE_COLOUR('',#39);
#39=COLOUR_RGB('GOLDEN_ORANGE',1.,0.65999847409781,0.);
#40=MANIFOLD_SOLID_BREP('',#41);
#41=CLOSED_SHELL('',(#42,#43,#44,#45,#46,#47,#48,#49,#50,#51,#52,#53,#54,
#55,#56));
#42=ADVANCED_FACE('',(#72),#57,.F.);
#43=ADVANCED_FACE('',(#73),#58,.F.);
#44=ADVANCED_FACE('',(#74),#59,.F.);
#45=ADVANCED_FACE('',(#75),#60,.F.);
#46=ADVANCED_FACE('',(#76),#61,.F.);
#47=ADVANCED_FACE('',(#77),#62,.F.);
#48=ADVANCED_FACE('',(#78),#63,.F.);
#49=ADVANCED_FACE('',(#79),#64,.T.);
#50=ADVANCED_FACE('',(#80),#65,.F.);
#51=ADVANCED_FACE('',(#81),#66,.T.);
#52=ADVANCED_FACE('',(#82),#67,.T.);
#53=ADVANCED_FACE('',(#83),#68,.F.);
#54=ADVANCED_FACE('',(#84),#69,.T.);
#55=ADVANCED_FACE('',(#85),#70,.F.);
#56=ADVANCED_FACE('',(#86),#71,.T.);
#57=PLANE('',#300);
#58=PLANE('',#301);
#59=PLANE('',#302);
#60=PLANE('',#303);
#61=PLANE('',#304);
#62=PLANE('',#305);
#63=PLANE('',#306);
#64=PLANE('',#307);
#65=PLANE('',#308);
#66=PLANE('',#309);
#67=PLANE('',#310);
#68=PLANE('',#311);
#69=PLANE('',#312);
#70=PLANE('',#313);
#71=PLANE('',#314);
#72=FACE_OUTER_BOUND('',#87,.T.);
#73=FACE_OUTER_BOUND('',#88,.T.);
#74=FACE_OUTER_BOUND('',#89,.T.);
#75=FACE_OUTER_BOUND('',#90,.T.);
#76=FACE_OUTER_BOUND('',#91,.T.);
#77=FACE_OUTER_BOUND('',#92,.T.);
#78=FACE_OUTER_BOUND('',#93,.T.);
#79=FACE_OUTER_BOUND('',#94,.T.);
#80=FACE_OUTER_BOUND('',#95,.T.);
#81=FACE_OUTER_BOUND('',#96,.T.);
#82=FACE_OUTER_BOUND('',#97,.T.);
#83=FACE_OUTER_BOUND('',#98,.T.);
#84=FACE_OUTER_BOUND('',#99,.T.);
#85=FACE_OUTER_BOUND('',#100,.T.);
#86=FACE_OUTER_BOUND('',#101,.T.);
#87=EDGE_LOOP('',(#102,#103,#104,#105));
#88=EDGE_LOOP('',(#106,#107,#108,#109));
#89=EDGE_LOOP('',(#110,#111,#112,#113));
#90=EDGE_LOOP('',(#114,#115,#116,#117));
#91=EDGE_LOOP('',(#118,#119,#120,#121));
#92=EDGE_LOOP('',(#122,#123,#124,#125));
#93=EDGE_LOOP('',(#126,#127,#128,#129));
#94=EDGE_LOOP('',(#130,#131,#132,#133,#134,#135,#136,#137,#138));
#95=EDGE_LOOP('',(#139,#140,#141,#142));
#96=EDGE_LOOP('',(#143,#144,#145,#146,#147,#148,#149,#150,#151));
#97=EDGE_LOOP('',(#152,#153,#154,#155));
#98=EDGE_LOOP('',(#156,#157,#158,#159));
#99=EDGE_LOOP('',(#160,#161,#162,#163));
#100=EDGE_LOOP('',(#164,#165,#166,#167));
#101=EDGE_LOOP('',(#168,#169,#170,#171));
#102=ORIENTED_EDGE('',*,*,#194,.F.);
#103=ORIENTED_EDGE('',*,*,#195,.F.);
#104=ORIENTED_EDGE('',*,*,#196,.F.);
#105=ORIENTED_EDGE('',*,*,#197,.F.);
#106=ORIENTED_EDGE('',*,*,#198,.F.);
#107=ORIENTED_EDGE('',*,*,#199,.F.);
#108=ORIENTED_EDGE('',*,*,#194,.T.);
#109=ORIENTED_EDGE('',*,*,#200,.F.);
#110=ORIENTED_EDGE('',*,*,#201,.F.);
#111=ORIENTED_EDGE('',*,*,#202,.F.);
#112=ORIENTED_EDGE('',*,*,#198,.T.);
#113=ORIENTED_EDGE('',*,*,#203,.F.);
#114=ORIENTED_EDGE('',*,*,#204,.F.);
#115=ORIENTED_EDGE('',*,*,#205,.F.);
#116=ORIENTED_EDGE('',*,*,#201,.T.);
#117=ORIENTED_EDGE('',*,*,#206,.F.);
#118=ORIENTED_EDGE('',*,*,#207,.F.);
#119=ORIENTED_EDGE('',*,*,#208,.F.);
#120=ORIENTED_EDGE('',*,*,#209,.T.);
#121=ORIENTED_EDGE('',*,*,#210,.F.);
#122=ORIENTED_EDGE('',*,*,#211,.F.);
#123=ORIENTED_EDGE('',*,*,#212,.F.);
#124=ORIENTED_EDGE('',*,*,#207,.T.);
#125=ORIENTED_EDGE('',*,*,#213,.F.);
#126=ORIENTED_EDGE('',*,*,#214,.F.);
#127=ORIENTED_EDGE('',*,*,#215,.F.);
#128=ORIENTED_EDGE('',*,*,#211,.T.);
#129=ORIENTED_EDGE('',*,*,#216,.F.);
#130=ORIENTED_EDGE('',*,*,#217,.T.);
#131=ORIENTED_EDGE('',*,*,#216,.T.);
#132=ORIENTED_EDGE('',*,*,#213,.T.);
#133=ORIENTED_EDGE('',*,*,#210,.T.);
#134=ORIENTED_EDGE('',*,*,#218,.T.);
#135=ORIENTED_EDGE('',*,*,#206,.T.);
#136=ORIENTED_EDGE('',*,*,#203,.T.);
#137=ORIENTED_EDGE('',*,*,#200,.T.);
#138=ORIENTED_EDGE('',*,*,#197,.T.);
#139=ORIENTED_EDGE('',*,*,#196,.T.);
#140=ORIENTED_EDGE('',*,*,#219,.F.);
#141=ORIENTED_EDGE('',*,*,#214,.T.);
#142=ORIENTED_EDGE('',*,*,#217,.F.);
#143=ORIENTED_EDGE('',*,*,#219,.T.);
#144=ORIENTED_EDGE('',*,*,#195,.T.);
#145=ORIENTED_EDGE('',*,*,#199,.T.);
#146=ORIENTED_EDGE('',*,*,#202,.T.);
#147=ORIENTED_EDGE('',*,*,#205,.T.);
#148=ORIENTED_EDGE('',*,*,#220,.F.);
#149=ORIENTED_EDGE('',*,*,#208,.T.);
#150=ORIENTED_EDGE('',*,*,#212,.T.);
#151=ORIENTED_EDGE('',*,*,#215,.T.);
#152=ORIENTED_EDGE('',*,*,#221,.T.);
#153=ORIENTED_EDGE('',*,*,#220,.T.);
#154=ORIENTED_EDGE('',*,*,#222,.T.);
#155=ORIENTED_EDGE('',*,*,#223,.T.);
#156=ORIENTED_EDGE('',*,*,#224,.F.);
#157=ORIENTED_EDGE('',*,*,#222,.F.);
#158=ORIENTED_EDGE('',*,*,#204,.T.);
#159=ORIENTED_EDGE('',*,*,#225,.F.);
#160=ORIENTED_EDGE('',*,*,#226,.T.);
#161=ORIENTED_EDGE('',*,*,#227,.T.);
#162=ORIENTED_EDGE('',*,*,#225,.T.);
#163=ORIENTED_EDGE('',*,*,#218,.F.);
#164=ORIENTED_EDGE('',*,*,#209,.F.);
#165=ORIENTED_EDGE('',*,*,#221,.F.);
#166=ORIENTED_EDGE('',*,*,#228,.F.);
#167=ORIENTED_EDGE('',*,*,#226,.F.);
#168=ORIENTED_EDGE('',*,*,#228,.T.);
#169=ORIENTED_EDGE('',*,*,#223,.F.);
#170=ORIENTED_EDGE('',*,*,#224,.T.);
#171=ORIENTED_EDGE('',*,*,#227,.F.);
#172=VERTEX_POINT('',#384);
#173=VERTEX_POINT('',#385);
#174=VERTEX_POINT('',#387);
#175=VERTEX_POINT('',#389);
#176=VERTEX_POINT('',#393);
#177=VERTEX_POINT('',#394);
#178=VERTEX_POINT('',#399);
#179=VERTEX_POINT('',#400);
#180=VERTEX_POINT('',#405);
#181=VERTEX_POINT('',#406);
#182=VERTEX_POINT('',#411);
#183=VERTEX_POINT('',#412);
#184=VERTEX_POINT('',#414);
#185=VERTEX_POINT('',#416);
#186=VERTEX_POINT('',#420);
#187=VERTEX_POINT('',#421);
#188=VERTEX_POINT('',#426);
#189=VERTEX_POINT('',#427);
#190=VERTEX_POINT('',#439);
#191=VERTEX_POINT('',#441);
#192=VERTEX_POINT('',#445);
#193=VERTEX_POINT('',#449);
#194=EDGE_CURVE('',#172,#173,#229,.T.);
#195=EDGE_CURVE('',#174,#172,#230,.T.);
#196=EDGE_CURVE('',#175,#174,#231,.T.);
#197=EDGE_CURVE('',#173,#175,#232,.T.);
#198=EDGE_CURVE('',#176,#177,#233,.T.);
#199=EDGE_CURVE('',#172,#176,#234,.T.);
#200=EDGE_CURVE('',#177,#173,#235,.T.);
#201=EDGE_CURVE('',#178,#179,#236,.T.);
#202=EDGE_CURVE('',#176,#178,#237,.T.);
#203=EDGE_CURVE('',#179,#177,#238,.T.);
#204=EDGE_CURVE('',#180,#181,#239,.T.);
#205=EDGE_CURVE('',#178,#180,#240,.T.);
#206=EDGE_CURVE('',#181,#179,#241,.T.);
#207=EDGE_CURVE('',#182,#183,#242,.T.);
#208=EDGE_CURVE('',#184,#182,#243,.T.);
#209=EDGE_CURVE('',#184,#185,#244,.T.);
#210=EDGE_CURVE('',#183,#185,#245,.T.);
#211=EDGE_CURVE('',#186,#187,#246,.T.);
#212=EDGE_CURVE('',#182,#186,#247,.T.);
#213=EDGE_CURVE('',#187,#183,#248,.T.);
#214=EDGE_CURVE('',#188,#189,#249,.T.);
#215=EDGE_CURVE('',#186,#188,#250,.T.);
#216=EDGE_CURVE('',#189,#187,#251,.T.);
#217=EDGE_CURVE('',#175,#189,#252,.T.);
#218=EDGE_CURVE('',#185,#181,#253,.T.);
#219=EDGE_CURVE('',#188,#174,#254,.T.);
#220=EDGE_CURVE('',#184,#180,#255,.T.);
#221=EDGE_CURVE('',#190,#184,#256,.T.);
#222=EDGE_CURVE('',#180,#191,#257,.T.);
#223=EDGE_CURVE('',#191,#190,#258,.T.);
#224=EDGE_CURVE('',#191,#192,#259,.T.);
#225=EDGE_CURVE('',#192,#181,#260,.T.);
#226=EDGE_CURVE('',#185,#193,#261,.T.);
#227=EDGE_CURVE('',#193,#192,#262,.T.);
#228=EDGE_CURVE('',#193,#190,#263,.T.);
#229=LINE('',#383,#264);
#230=LINE('',#386,#265);
#231=LINE('',#388,#266);
#232=LINE('',#390,#267);
#233=LINE('',#392,#268);
#234=LINE('',#395,#269);
#235=LINE('',#396,#270);
#236=LINE('',#398,#271);
#237=LINE('',#401,#272);
#238=LINE('',#402,#273);
#239=LINE('',#404,#274);
#240=LINE('',#407,#275);
#241=LINE('',#408,#276);
#242=LINE('',#410,#277);
#243=LINE('',#413,#278);
#244=LINE('',#415,#279);
#245=LINE('',#417,#280);
#246=LINE('',#419,#281);
#247=LINE('',#422,#282);
#248=LINE('',#423,#283);
#249=LINE('',#425,#284);
#250=LINE('',#428,#285);
#251=LINE('',#429,#286);
#252=LINE('',#431,#287);
#253=LINE('',#432,#288);
#254=LINE('',#434,#289);
#255=LINE('',#436,#290);
#256=LINE('',#438,#291);
#257=LINE('',#440,#292);
#258=LINE('',#442,#293);
#259=LINE('',#444,#294);
#260=LINE('',#446,#295);
#261=LINE('',#448,#296);
#262=LINE('',#450,#297);
#263=LINE('',#452,#298);
#264=VECTOR('',#317,1.);
#265=VECTOR('',#318,1.);
#266=VECTOR('',#319,1.);
#267=VECTOR('',#320,1.);
#268=VECTOR('',#323,1.);
#269=VECTOR('',#324,1.);
#270=VECTOR('',#325,1.);
#271=VECTOR('',#328,1.);
#272=VECTOR('',#329,1.);
#273=VECTOR('',#330,1.);
#274=VECTOR('',#333,1.);
#275=VECTOR('',#334,1.);
#276=VECTOR('',#335,1.);
#277=VECTOR('',#338,1.);
#278=VECTOR('',#339,1.);
#279=VECTOR('',#340,1.);
#280=VECTOR('',#341,1.);
#281=VECTOR('',#344,1.);
#282=VECTOR('',#345,1.);
#283=VECTOR('',#346,1.);
#284=VECTOR('',#349,1.);
#285=VECTOR('',#350,1.);
#286=VECTOR('',#351,1.);
#287=VECTOR('',#354,1.);
#288=VECTOR('',#355,1.);
#289=VECTOR('',#358,1.);
#290=VECTOR('',#361,1.);
#291=VECTOR('',#364,1.);
#292=VECTOR('',#365,1.);
#293=VECTOR('',#366,1.);
#294=VECTOR('',#369,1.);
#295=VECTOR('',#370,1.);
#296=VECTOR('',#373,1.);
#297=VECTOR('',#374,1.);
#298=VECTOR('',#377,1.);
#299=AXIS2_PLACEMENT_3D('',#382,#315,#316);
#300=AXIS2_PLACEMENT_3D('',#391,#321,#322);
#301=AXIS2_PLACEMENT_3D('',#397,#326,#327);
#302=AXIS2_PLACEMENT_3D('',#403,#331,#332);
#303=AXIS2_PLACEMENT_3D('',#409,#336,#337);
#304=AXIS2_PLACEMENT_3D('',#418,#342,#343);
#305=AXIS2_PLACEMENT_3D('',#424,#347,#348);
#306=AXIS2_PLACEMENT_3D('',#430,#352,#353);
#307=AXIS2_PLACEMENT_3D('',#433,#356,#357);
#308=AXIS2_PLACEMENT_3D('',#435,#359,#360);
#309=AXIS2_PLACEMENT_3D('',#437,#362,#363);
#310=AXIS2_PLACEMENT_3D('',#443,#367,#368);
#311=AXIS2_PLACEMENT_3D('',#447,#371,#372);
#312=AXIS2_PLACEMENT_3D('',#451,#375,#376);
#313=AXIS2_PLACEMENT_3D('',#453,#378,#379);
#314=AXIS2_PLACEMENT_3D('',#454,#380,#381);
#315=DIRECTION('',(0.,0.,1.));
#316=DIRECTION('',(1.,0.,0.));
#317=DIRECTION('',(1.,0.,0.));
#318=DIRECTION('',(0.,0.86602540378444,0.499999999999997));
#319=DIRECTION('',(-1.,0.,0.));
#320=DIRECTION('',(-1.86931409049224E-16,-0.866025403784439,-0.499999999999999));
#321=DIRECTION('',(4.07687414951381E-16,0.499999999999998,-0.86602540378444));
#322=DIRECTION('',(0.,0.86602540378444,0.499999999999998));
#323=DIRECTION('',(1.,0.,0.));
#324=DIRECTION('',(1.18375378827378E-16,1.,-6.31335353746017E-16));
#325=DIRECTION('',(-1.9729229804563E-16,-1.,6.31335353746017E-16));
#326=DIRECTION('',(0.,-6.31335353746017E-16,-1.));
#327=DIRECTION('',(0.,1.,-6.31439345255558E-16));
#328=DIRECTION('',(1.,0.,0.));
#329=DIRECTION('',(0.,0.,1.));
#330=DIRECTION('',(0.,0.,-1.));
#331=DIRECTION('',(0.,1.,0.));
#332=DIRECTION('',(0.,0.,1.));
#333=DIRECTION('',(1.,0.,0.));
#334=DIRECTION('',(0.,1.,0.));
#335=DIRECTION('',(0.,-1.,0.));
#336=DIRECTION('',(0.,0.,-1.));
#337=DIRECTION('',(0.,1.,0.));
#338=DIRECTION('',(1.,0.,0.));
#339=DIRECTION('',(0.,-1.,0.));
#340=DIRECTION('',(1.,0.,0.));
#341=DIRECTION('',(0.,1.,0.));
#342=DIRECTION('',(0.,0.,1.));
#343=DIRECTION('',(0.,-1.,0.));
#344=DIRECTION('',(1.,0.,0.));
#345=DIRECTION('',(0.,0.,1.));
#346=DIRECTION('',(0.,0.,-1.));
#347=DIRECTION('',(0.,1.,0.));
#348=DIRECTION('',(0.,0.,1.));
#349=DIRECTION('',(1.,0.,0.));
#350=DIRECTION('',(-3.15667676873009E-16,-1.,0.));
#351=DIRECTION('',(3.94584596091261E-16,1.,0.));
#352=DIRECTION('',(0.,0.,1.));
#353=DIRECTION('',(0.,-1.,0.));
#354=DIRECTION('',(0.,0.86602540378444,-0.499999999999998));
#355=DIRECTION('',(0.,0.,1.));
#356=DIRECTION('',(1.,-3.06127672231201E-16,0.));
#357=DIRECTION('',(3.06178693509906E-16,1.,0.));
#358=DIRECTION('',(0.,-0.86602540378444,0.499999999999998));
#359=DIRECTION('',(0.,0.499999999999998,0.86602540378444));
#360=DIRECTION('',(0.,-0.86602540378444,0.499999999999998));
#361=DIRECTION('',(0.,0.,1.));
#362=DIRECTION('',(-1.,1.020425574104E-16,0.));
#363=DIRECTION('',(-1.02023424430886E-16,-1.,0.));
#364=DIRECTION('',(0.553464497665749,-0.721288976324816,0.416436384644641));
#365=DIRECTION('',(-0.553464497665749,0.721288976324816,0.416436384644642));
#366=DIRECTION('',(0.,0.,-1.));
#367=DIRECTION('',(-0.793353340291235,-0.608761429008721,0.));
#368=DIRECTION('',(0.608761429008721,-0.793353340291235,0.));
#369=DIRECTION('',(1.,0.,0.));
#370=DIRECTION('',(-0.553464497665749,-0.721288976324815,-0.416436384644642));
#371=DIRECTION('',(1.05486413654074E-16,0.5,-0.866025403784438));
#372=DIRECTION('',(0.,0.866025403784438,0.5));
#373=DIRECTION('',(0.553464497665749,0.721288976324816,-0.416436384644641));
#374=DIRECTION('',(0.,0.,1.));
#375=DIRECTION('',(0.793353340291235,-0.608761429008721,0.));
#376=DIRECTION('',(0.608761429008721,0.793353340291235,0.));
#377=DIRECTION('',(-1.,0.,0.));
#378=DIRECTION('',(5.27432068270368E-17,0.499999999999999,0.866025403784439));
#379=DIRECTION('',(0.,-0.866025403784439,0.499999999999999));
#380=DIRECTION('',(9.67695338010899E-17,1.,0.));
#381=DIRECTION('',(-1.,9.67695338010899E-17,0.));
#382=CARTESIAN_POINT('',(0.,0.,0.));
#383=CARTESIAN_POINT('',(-0.825000000000001,-4.49770526580502,2.78999991319783));
#384=CARTESIAN_POINT('',(-0.825000000000001,-4.49770526580502,2.78999991319783));
#385=CARTESIAN_POINT('',(0.824999999999999,-4.49770526580502,2.78999991319783));
#386=CARTESIAN_POINT('',(-0.825000000000001,-5.,2.49999991319783));
#387=CARTESIAN_POINT('',(-0.825000000000001,-5.,2.49999991319783));
#388=CARTESIAN_POINT('',(0.824999999999999,-5.,2.49999991319783));
#389=CARTESIAN_POINT('',(0.824999999999999,-5.,2.49999991319783));
#390=CARTESIAN_POINT('',(0.824999999999999,-4.49770526580502,2.78999991319783));
#391=CARTESIAN_POINT('',(-1.0425,-5.,2.49999991319783));
#392=CARTESIAN_POINT('',(-0.825,-1.75,2.78999991319782));
#393=CARTESIAN_POINT('',(-0.825,-1.75,2.78999991319782));
#394=CARTESIAN_POINT('',(0.824999999999999,-1.75,2.78999991319782));
#395=CARTESIAN_POINT('',(-0.825000000000001,-4.49770526580502,2.78999991319783));
#396=CARTESIAN_POINT('',(0.824999999999999,-1.75,2.78999991319782));
#397=CARTESIAN_POINT('',(-1.0425,-4.49770526580502,2.78999991319783));
#398=CARTESIAN_POINT('',(-0.825,-1.75,2.88999991319782));
#399=CARTESIAN_POINT('',(-0.825,-1.75,2.88999991319782));
#400=CARTESIAN_POINT('',(0.825,-1.75,2.88999991319782));
#401=CARTESIAN_POINT('',(-0.825,-1.75,2.78999991319782));
#402=CARTESIAN_POINT('',(0.824999999999999,-1.75,2.88999991319782));
#403=CARTESIAN_POINT('',(-1.0425,-1.75,2.78999991319782));
#404=CARTESIAN_POINT('',(-0.825000000000001,-0.75,2.88999991319782));
#405=CARTESIAN_POINT('',(-0.825000000000001,-0.75,2.88999991319782));
#406=CARTESIAN_POINT('',(0.825,-0.75,2.88999991319782));
#407=CARTESIAN_POINT('',(-0.825,-1.75,2.88999991319782));
#408=CARTESIAN_POINT('',(0.825,-0.75,2.88999991319782));
#409=CARTESIAN_POINT('',(-1.0425,-1.75,2.88999991319782));
#410=CARTESIAN_POINT('',(-0.825,-1.75,2.10999991319782));
#411=CARTESIAN_POINT('',(-0.825,-1.75,2.10999991319782));
#412=CARTESIAN_POINT('',(0.824999999999999,-1.75,2.10999991319782));
#413=CARTESIAN_POINT('',(-0.825,-0.75,2.10999991319782));
#414=CARTESIAN_POINT('',(-0.825,-0.75,2.10999991319782));
#415=CARTESIAN_POINT('',(-0.825,-0.75,2.10999991319782));
#416=CARTESIAN_POINT('',(0.824999999999999,-0.75,2.10999991319782));
#417=CARTESIAN_POINT('',(0.825,-1.75,2.10999991319782));
#418=CARTESIAN_POINT('',(-1.0425,-0.75,2.10999991319782));
#419=CARTESIAN_POINT('',(-0.825,-1.75,2.20999991319782));
#420=CARTESIAN_POINT('',(-0.825,-1.75,2.20999991319782));
#421=CARTESIAN_POINT('',(0.825,-1.75,2.20999991319782));
#422=CARTESIAN_POINT('',(-0.825,-1.75,2.10999991319782));
#423=CARTESIAN_POINT('',(0.824999999999999,-1.75,2.20999991319782));
#424=CARTESIAN_POINT('',(-1.0425,-1.75,2.10999991319782));
#425=CARTESIAN_POINT('',(-0.825,-4.49770526580502,2.20999991319782));
#426=CARTESIAN_POINT('',(-0.825000000000001,-4.49770526580502,2.20999991319782));
#427=CARTESIAN_POINT('',(0.824999999999999,-4.49770526580502,2.20999991319782));
#428=CARTESIAN_POINT('',(-0.825,-1.75,2.20999991319782));
#429=CARTESIAN_POINT('',(0.824999999999999,-4.49770526580502,2.20999991319782));
#430=CARTESIAN_POINT('',(-1.0425,-1.75,2.20999991319782));
#431=CARTESIAN_POINT('',(0.824999999999999,-5.,2.49999991319783));
#432=CARTESIAN_POINT('',(0.825,-0.75,2.10999991319782));
#433=CARTESIAN_POINT('',(0.824999999999999,-5.,1.89899992187804));
#434=CARTESIAN_POINT('',(-0.825,-4.49770526580502,2.20999991319782));
#435=CARTESIAN_POINT('',(-1.0425,-4.49770526580502,2.20999991319782));
#436=CARTESIAN_POINT('',(-0.825,-0.75,2.10999991319782));
#437=CARTESIAN_POINT('',(-0.825,-0.75,1.89899992187804));
#438=CARTESIAN_POINT('',(-1.40049524098422,6.00133445309006E-17,1.67698721130561));
#439=CARTESIAN_POINT('',(-1.40049524098422,-2.16840434497101E-16,1.67698721130561));
#440=CARTESIAN_POINT('',(-0.825000000000001,-0.75,2.88999991319782));
#441=CARTESIAN_POINT('',(-1.40049524098422,-2.16840434497101E-16,3.32301261509004));
#442=CARTESIAN_POINT('',(-1.40049524098422,2.71050543121376E-17,3.32301261509004));
#443=CARTESIAN_POINT('',(-1.40049524098422,2.71050543121376E-17,1.50928849017505));
#444=CARTESIAN_POINT('',(-1.40049524098422,-2.16840434497101E-16,3.32301261509004));
#445=CARTESIAN_POINT('',(1.40049524098422,-2.16840434497101E-16,3.32301261509004));
#446=CARTESIAN_POINT('',(1.40049524098422,-6.33174068731535E-16,3.32301261509004));
#447=CARTESIAN_POINT('',(-1.5604457168858,-0.75,2.88999991319782));
#448=CARTESIAN_POINT('',(0.825,-0.75,2.10999991319782));
#449=CARTESIAN_POINT('',(1.40049524098422,-2.16840434497101E-16,1.67698721130561));
#450=CARTESIAN_POINT('',(1.40049524098422,-3.25260651745651E-16,1.67698721130561));
#451=CARTESIAN_POINT('',(0.825,-0.75,1.50928849017505));
#452=CARTESIAN_POINT('',(1.40049524098422,-2.16840434497101E-16,1.67698721130561));
#453=CARTESIAN_POINT('',(-1.5604457168858,-2.16840434497101E-16,1.67698721130561));
#454=CARTESIAN_POINT('',(1.40049524098422,-2.43945488809239E-16,1.50928849017504));
#455=MECHANICAL_DESIGN_GEOMETRIC_PRESENTATION_REPRESENTATION('',(#32),#456);
#456=(
GEOMETRIC_REPRESENTATION_CONTEXT(3)
GLOBAL_UNCERTAINTY_ASSIGNED_CONTEXT((#457))
GLOBAL_UNIT_ASSIGNED_CONTEXT((#463,#459,#458))
REPRESENTATION_CONTEXT('100122904ugm000_b','TOP_LEVEL_ASSEMBLY_PART')
);
#457=UNCERTAINTY_MEASURE_WITH_UNIT(LENGTH_MEASURE(2.E-5),#463,
'DISTANCE_ACCURACY_VALUE','Maximum Tolerance applied to model');
#458=(
NAMED_UNIT(*)
SI_UNIT($,.STERADIAN.)
SOLID_ANGLE_UNIT()
);
#459=(
CONVERSION_BASED_UNIT('DEGREE',#461)
NAMED_UNIT(#460)
PLANE_ANGLE_UNIT()
);
#460=DIMENSIONAL_EXPONENTS(0.,0.,0.,0.,0.,0.,0.);
#461=PLANE_ANGLE_MEASURE_WITH_UNIT(PLANE_ANGLE_MEASURE(0.0174532925),#462);
#462=(
NAMED_UNIT(*)
PLANE_ANGLE_UNIT()
SI_UNIT($,.RADIAN.)
);
#463=(
LENGTH_UNIT()
NAMED_UNIT(*)
SI_UNIT(.MILLI.,.METRE.)
);
ENDSEC;
END-ISO-10303-21;
