ISO-10303-21;
HEADER;
/* Generated by software containing ST-Developer
 * from STEP Tools, Inc. (www.steptools.com) 
 */
/* OPTION: using custom schema-name function */

FILE_DESCRIPTION(
/* description */ (''),
/* implementation_level */ '2;1');

FILE_NAME(
/* name */ '100120269ugm000_b.stp',
/* time_stamp */ '2014-07-14T13:53:29+02:00',
/* author */ (''),
/* organization */ (''),
/* preprocessor_version */ 'ST-DEVELOPER v15',
/* originating_system */ 'SIEMENS PLM Software NX 8.5',
/* authorisation */ '');

FILE_SCHEMA (('AUTOMOTIVE_DESIGN { 1 0 10303 214 3 1 1 1 }'));
ENDSEC;

DATA;
#10=GEOMETRICALLY_BOUNDED_WIREFRAME_SHAPE_REPRESENTATION(
'100120269ugm000_b-None',(#33),#375);
#11=PROPERTY_DEFINITION_REPRESENTATION(#15,#13);
#12=PROPERTY_DEFINITION_REPRESENTATION(#16,#14);
#13=REPRESENTATION('',(#17),#375);
#14=REPRESENTATION('',(#18),#375);
#15=PROPERTY_DEFINITION('pmi validation property','',#23);
#16=PROPERTY_DEFINITION('pmi validation property','',#23);
#17=VALUE_REPRESENTATION_ITEM('number of annotations',COUNT_MEASURE(0.));
#18=VALUE_REPRESENTATION_ITEM('number of views',COUNT_MEASURE(0.));
#19=SHAPE_REPRESENTATION_RELATIONSHIP('None',
'relationship between 100120269ugm000_b-None and 100120269ugm000_b-Non
e',#32,#21);
#20=SHAPE_REPRESENTATION_RELATIONSHIP('None',
'relationship between 100120269ugm000_b-None and 100120269ugm000_b-Non
e',#32,#10);
#21=ADVANCED_BREP_SHAPE_REPRESENTATION('100120269ugm000_b-None',(#39),#375);
#22=SHAPE_DEFINITION_REPRESENTATION(#23,#32);
#23=PRODUCT_DEFINITION_SHAPE('','',#24);
#24=PRODUCT_DEFINITION(' ','',#26,#25);
#25=PRODUCT_DEFINITION_CONTEXT('part definition',#31,'design');
#26=PRODUCT_DEFINITION_FORMATION_WITH_SPECIFIED_SOURCE(' ',' ',#28,
 .NOT_KNOWN.);
#27=PRODUCT_RELATED_PRODUCT_CATEGORY('part','',(#28));
#28=PRODUCT('100120269ugm000_b','100120269ugm000_b',' ',(#29));
#29=PRODUCT_CONTEXT(' ',#31,'mechanical');
#30=APPLICATION_PROTOCOL_DEFINITION('international standard',
'automotive_design',2010,#31);
#31=APPLICATION_CONTEXT(
'core data for automotive mechanical design processes');
#32=SHAPE_REPRESENTATION('100120269ugm000_b-None',(#252),#375);
#33=GEOMETRIC_CURVE_SET('None',(#316,#317));
#34=SURFACE_STYLE_USAGE(.BOTH.,#35);
#35=SURFACE_SIDE_STYLE('',(#36));
#36=SURFACE_STYLE_FILL_AREA(#37);
#37=FILL_AREA_STYLE('',(#38));
#38=FILL_AREA_STYLE_COLOUR('',#238);
#39=MANIFOLD_SOLID_BREP('',#40);
#40=CLOSED_SHELL('',(#41,#42,#43,#44,#45,#46,#47,#48,#49,#50,#51));
#41=ADVANCED_FACE('',(#63),#52,.T.);
#42=ADVANCED_FACE('',(#64),#53,.T.);
#43=ADVANCED_FACE('',(#65),#54,.F.);
#44=ADVANCED_FACE('',(#66),#55,.F.);
#45=ADVANCED_FACE('',(#67),#56,.T.);
#46=ADVANCED_FACE('',(#68),#57,.T.);
#47=ADVANCED_FACE('',(#69),#58,.F.);
#48=ADVANCED_FACE('',(#70),#59,.T.);
#49=ADVANCED_FACE('',(#71),#60,.T.);
#50=ADVANCED_FACE('',(#72),#61,.F.);
#51=ADVANCED_FACE('',(#73),#62,.T.);
#52=PLANE('',#253);
#53=PLANE('',#254);
#54=PLANE('',#255);
#55=PLANE('',#256);
#56=PLANE('',#257);
#57=PLANE('',#258);
#58=PLANE('',#259);
#59=PLANE('',#260);
#60=PLANE('',#261);
#61=PLANE('',#262);
#62=PLANE('',#263);
#63=FACE_OUTER_BOUND('',#74,.T.);
#64=FACE_OUTER_BOUND('',#75,.T.);
#65=FACE_OUTER_BOUND('',#76,.T.);
#66=FACE_OUTER_BOUND('',#77,.T.);
#67=FACE_OUTER_BOUND('',#78,.T.);
#68=FACE_OUTER_BOUND('',#79,.T.);
#69=FACE_OUTER_BOUND('',#80,.T.);
#70=FACE_OUTER_BOUND('',#81,.T.);
#71=FACE_OUTER_BOUND('',#82,.T.);
#72=FACE_OUTER_BOUND('',#83,.T.);
#73=FACE_OUTER_BOUND('',#84,.T.);
#74=EDGE_LOOP('',(#85,#86,#87,#88));
#75=EDGE_LOOP('',(#89,#90,#91,#92));
#76=EDGE_LOOP('',(#93,#94,#95,#96,#97));
#77=EDGE_LOOP('',(#98,#99,#100,#101,#102,#103));
#78=EDGE_LOOP('',(#104,#105,#106,#107));
#79=EDGE_LOOP('',(#108,#109,#110,#111,#112,#113));
#80=EDGE_LOOP('',(#114,#115,#116,#117,#118));
#81=EDGE_LOOP('',(#119,#120,#121,#122,#123,#124));
#82=EDGE_LOOP('',(#125,#126,#127,#128));
#83=EDGE_LOOP('',(#129,#130,#131,#132,#133,#134));
#84=EDGE_LOOP('',(#135,#136,#137,#138));
#85=ORIENTED_EDGE('',*,*,#157,.T.);
#86=ORIENTED_EDGE('',*,*,#158,.F.);
#87=ORIENTED_EDGE('',*,*,#159,.T.);
#88=ORIENTED_EDGE('',*,*,#160,.T.);
#89=ORIENTED_EDGE('',*,*,#161,.T.);
#90=ORIENTED_EDGE('',*,*,#160,.F.);
#91=ORIENTED_EDGE('',*,*,#162,.T.);
#92=ORIENTED_EDGE('',*,*,#163,.T.);
#93=ORIENTED_EDGE('',*,*,#162,.F.);
#94=ORIENTED_EDGE('',*,*,#159,.F.);
#95=ORIENTED_EDGE('',*,*,#164,.F.);
#96=ORIENTED_EDGE('',*,*,#165,.T.);
#97=ORIENTED_EDGE('',*,*,#166,.F.);
#98=ORIENTED_EDGE('',*,*,#167,.F.);
#99=ORIENTED_EDGE('',*,*,#165,.F.);
#100=ORIENTED_EDGE('',*,*,#168,.F.);
#101=ORIENTED_EDGE('',*,*,#169,.F.);
#102=ORIENTED_EDGE('',*,*,#170,.F.);
#103=ORIENTED_EDGE('',*,*,#171,.F.);
#104=ORIENTED_EDGE('',*,*,#172,.T.);
#105=ORIENTED_EDGE('',*,*,#173,.F.);
#106=ORIENTED_EDGE('',*,*,#169,.T.);
#107=ORIENTED_EDGE('',*,*,#174,.T.);
#108=ORIENTED_EDGE('',*,*,#175,.T.);
#109=ORIENTED_EDGE('',*,*,#174,.F.);
#110=ORIENTED_EDGE('',*,*,#168,.T.);
#111=ORIENTED_EDGE('',*,*,#164,.T.);
#112=ORIENTED_EDGE('',*,*,#158,.T.);
#113=ORIENTED_EDGE('',*,*,#176,.T.);
#114=ORIENTED_EDGE('',*,*,#177,.F.);
#115=ORIENTED_EDGE('',*,*,#176,.F.);
#116=ORIENTED_EDGE('',*,*,#157,.F.);
#117=ORIENTED_EDGE('',*,*,#161,.F.);
#118=ORIENTED_EDGE('',*,*,#178,.F.);
#119=ORIENTED_EDGE('',*,*,#179,.T.);
#120=ORIENTED_EDGE('',*,*,#178,.T.);
#121=ORIENTED_EDGE('',*,*,#163,.F.);
#122=ORIENTED_EDGE('',*,*,#166,.T.);
#123=ORIENTED_EDGE('',*,*,#167,.T.);
#124=ORIENTED_EDGE('',*,*,#180,.T.);
#125=ORIENTED_EDGE('',*,*,#181,.T.);
#126=ORIENTED_EDGE('',*,*,#180,.F.);
#127=ORIENTED_EDGE('',*,*,#171,.T.);
#128=ORIENTED_EDGE('',*,*,#182,.F.);
#129=ORIENTED_EDGE('',*,*,#183,.F.);
#130=ORIENTED_EDGE('',*,*,#172,.F.);
#131=ORIENTED_EDGE('',*,*,#175,.F.);
#132=ORIENTED_EDGE('',*,*,#177,.T.);
#133=ORIENTED_EDGE('',*,*,#179,.F.);
#134=ORIENTED_EDGE('',*,*,#181,.F.);
#135=ORIENTED_EDGE('',*,*,#183,.T.);
#136=ORIENTED_EDGE('',*,*,#182,.T.);
#137=ORIENTED_EDGE('',*,*,#170,.T.);
#138=ORIENTED_EDGE('',*,*,#173,.T.);
#139=VERTEX_POINT('',#319);
#140=VERTEX_POINT('',#320);
#141=VERTEX_POINT('',#322);
#142=VERTEX_POINT('',#324);
#143=VERTEX_POINT('',#328);
#144=VERTEX_POINT('',#330);
#145=VERTEX_POINT('',#334);
#146=VERTEX_POINT('',#336);
#147=VERTEX_POINT('',#340);
#148=VERTEX_POINT('',#342);
#149=VERTEX_POINT('',#344);
#150=VERTEX_POINT('',#346);
#151=VERTEX_POINT('',#350);
#152=VERTEX_POINT('',#351);
#153=VERTEX_POINT('',#356);
#154=VERTEX_POINT('',#360);
#155=VERTEX_POINT('',#364);
#156=VERTEX_POINT('',#368);
#157=EDGE_CURVE('',#139,#140,#184,.T.);
#158=EDGE_CURVE('',#141,#140,#185,.T.);
#159=EDGE_CURVE('',#141,#142,#186,.T.);
#160=EDGE_CURVE('',#142,#139,#187,.T.);
#161=EDGE_CURVE('',#143,#139,#188,.T.);
#162=EDGE_CURVE('',#142,#144,#189,.T.);
#163=EDGE_CURVE('',#144,#143,#190,.T.);
#164=EDGE_CURVE('',#145,#141,#191,.T.);
#165=EDGE_CURVE('',#145,#146,#192,.T.);
#166=EDGE_CURVE('',#144,#146,#193,.T.);
#167=EDGE_CURVE('',#146,#147,#194,.T.);
#168=EDGE_CURVE('',#148,#145,#195,.T.);
#169=EDGE_CURVE('',#149,#148,#196,.T.);
#170=EDGE_CURVE('',#150,#149,#197,.T.);
#171=EDGE_CURVE('',#147,#150,#198,.T.);
#172=EDGE_CURVE('',#151,#152,#199,.T.);
#173=EDGE_CURVE('',#149,#152,#200,.T.);
#174=EDGE_CURVE('',#148,#151,#201,.T.);
#175=EDGE_CURVE('',#153,#151,#202,.T.);
#176=EDGE_CURVE('',#140,#153,#203,.T.);
#177=EDGE_CURVE('',#153,#154,#204,.T.);
#178=EDGE_CURVE('',#154,#143,#205,.T.);
#179=EDGE_CURVE('',#155,#154,#206,.T.);
#180=EDGE_CURVE('',#147,#155,#207,.T.);
#181=EDGE_CURVE('',#156,#155,#208,.T.);
#182=EDGE_CURVE('',#156,#150,#209,.T.);
#183=EDGE_CURVE('',#152,#156,#210,.T.);
#184=LINE('',#318,#211);
#185=LINE('',#321,#212);
#186=LINE('',#323,#213);
#187=LINE('',#325,#214);
#188=LINE('',#327,#215);
#189=LINE('',#329,#216);
#190=LINE('',#331,#217);
#191=LINE('',#333,#218);
#192=LINE('',#335,#219);
#193=LINE('',#337,#220);
#194=LINE('',#339,#221);
#195=LINE('',#341,#222);
#196=LINE('',#343,#223);
#197=LINE('',#345,#224);
#198=LINE('',#347,#225);
#199=LINE('',#349,#226);
#200=LINE('',#352,#227);
#201=LINE('',#353,#228);
#202=LINE('',#355,#229);
#203=LINE('',#357,#230);
#204=LINE('',#359,#231);
#205=LINE('',#361,#232);
#206=LINE('',#363,#233);
#207=LINE('',#365,#234);
#208=LINE('',#367,#235);
#209=LINE('',#369,#236);
#210=LINE('',#371,#237);
#211=VECTOR('',#266,1.);
#212=VECTOR('',#267,1.);
#213=VECTOR('',#268,1.);
#214=VECTOR('',#269,1.);
#215=VECTOR('',#272,1.);
#216=VECTOR('',#273,1.);
#217=VECTOR('',#274,1.);
#218=VECTOR('',#277,1.);
#219=VECTOR('',#278,1.);
#220=VECTOR('',#279,1.);
#221=VECTOR('',#282,1.);
#222=VECTOR('',#283,1.);
#223=VECTOR('',#284,1.);
#224=VECTOR('',#285,1.);
#225=VECTOR('',#286,1.);
#226=VECTOR('',#289,1.);
#227=VECTOR('',#290,1.);
#228=VECTOR('',#291,1.);
#229=VECTOR('',#294,1.);
#230=VECTOR('',#295,1.);
#231=VECTOR('',#298,1.);
#232=VECTOR('',#299,1.);
#233=VECTOR('',#302,1.);
#234=VECTOR('',#303,1.);
#235=VECTOR('',#306,1.);
#236=VECTOR('',#307,1.);
#237=VECTOR('',#310,1.);
#238=COLOUR_RGB('ORANGE',1.,0.329991607537957,0.);
#239=PRESENTATION_LAYER_ASSIGNMENT('130','Layer 130',(#316,#317));
#240=PRESENTATION_LAYER_ASSIGNMENT('1','Layer 1',(#39));
#241=STYLED_ITEM('',(#244),#316);
#242=STYLED_ITEM('',(#245),#317);
#243=STYLED_ITEM('',(#246),#39);
#244=PRESENTATION_STYLE_ASSIGNMENT((#247));
#245=PRESENTATION_STYLE_ASSIGNMENT((#248));
#246=PRESENTATION_STYLE_ASSIGNMENT((#34));
#247=POINT_STYLE('',#249,POSITIVE_LENGTH_MEASURE(3.),#251);
#248=POINT_STYLE('',#250,POSITIVE_LENGTH_MEASURE(3.),#238);
#249=PRE_DEFINED_POINT_MARKER_SYMBOL('plus');
#250=PRE_DEFINED_POINT_MARKER_SYMBOL('plus');
#251=DRAUGHTING_PRE_DEFINED_COLOUR('yellow');
#252=AXIS2_PLACEMENT_3D('',#315,#264,#265);
#253=AXIS2_PLACEMENT_3D('',#326,#270,#271);
#254=AXIS2_PLACEMENT_3D('',#332,#275,#276);
#255=AXIS2_PLACEMENT_3D('',#338,#280,#281);
#256=AXIS2_PLACEMENT_3D('',#348,#287,#288);
#257=AXIS2_PLACEMENT_3D('',#354,#292,#293);
#258=AXIS2_PLACEMENT_3D('',#358,#296,#297);
#259=AXIS2_PLACEMENT_3D('',#362,#300,#301);
#260=AXIS2_PLACEMENT_3D('',#366,#304,#305);
#261=AXIS2_PLACEMENT_3D('',#370,#308,#309);
#262=AXIS2_PLACEMENT_3D('',#372,#311,#312);
#263=AXIS2_PLACEMENT_3D('',#373,#313,#314);
#264=DIRECTION('',(0.,0.,1.));
#265=DIRECTION('',(1.,0.,0.));
#266=DIRECTION('',(-0.500000000000001,0.866025403784438,0.));
#267=DIRECTION('',(0.,0.,1.));
#268=DIRECTION('',(0.500000000000002,-0.866025403784437,1.72095582934208E-016));
#269=DIRECTION('',(0.,0.,1.));
#270=DIRECTION('',(-0.866025403784438,-0.500000000000001,-3.84809999107545E-016));
#271=DIRECTION('',(0.500000000000001,-0.866025403784438,0.));
#272=DIRECTION('',(-0.500000000000001,-0.866025403784438,0.));
#273=DIRECTION('',(0.5,0.866025403784438,-1.72095582934207E-016));
#274=DIRECTION('',(-5.26311734216264E-017,8.42098774746023E-016,1.));
#275=DIRECTION('',(0.866025403784438,-0.500000000000001,0.));
#276=DIRECTION('',(0.500000000000001,0.866025403784438,0.));
#277=DIRECTION('',(-1.40625756348953E-016,-1.,1.12500605079162E-016));
#278=DIRECTION('',(1.,-1.72095582934207E-016,0.));
#279=DIRECTION('',(1.12500605079163E-016,1.,-1.12500605079163E-016));
#280=DIRECTION('',(-1.25052153689216E-016,1.10621218235886E-016,1.));
#281=DIRECTION('',(0.,-1.,1.10588621593521E-016));
#282=DIRECTION('',(0.,0.793353340291235,-0.608761429008721));
#283=DIRECTION('',(0.,-0.793353340291235,0.608761429008721));
#284=DIRECTION('',(0.519987941853021,-0.677661479394335,0.519987941853021));
#285=DIRECTION('',(-1.,0.,0.));
#286=DIRECTION('',(0.519987941853021,0.677661479394335,-0.519987941853021));
#287=DIRECTION('',(5.35922377004603E-017,0.608761429008721,0.793353340291235));
#288=DIRECTION('',(0.,-0.793353340291235,0.608761429008721));
#289=DIRECTION('',(-0.519987941853021,0.677661479394335,0.519987941853021));
#290=DIRECTION('',(0.,0.,1.));
#291=DIRECTION('',(0.,9.59470949102215E-017,1.));
#292=DIRECTION('',(-0.793353340291235,-0.608761429008721,0.));
#293=DIRECTION('',(0.608761429008721,-0.793353340291235,0.));
#294=DIRECTION('',(-6.60020463856627E-016,0.793353340291235,0.608761429008721));
#295=DIRECTION('',(8.43754538093718E-017,1.,-1.12500605079162E-016));
#296=DIRECTION('',(-1.,1.79774679542076E-016,0.));
#297=DIRECTION('',(-1.79760720198097E-016,-1.,0.));
#298=DIRECTION('',(1.,0.,0.));
#299=DIRECTION('',(-5.62503025395812E-017,-1.,1.12500605079162E-016));
#300=DIRECTION('',(0.,-1.10621218235886E-016,-1.));
#301=DIRECTION('',(0.,1.,-1.10588621593521E-016));
#302=DIRECTION('',(0.,-0.793353340291235,-0.608761429008721));
#303=DIRECTION('',(0.,0.,1.));
#304=DIRECTION('',(1.,-5.53152860129459E-017,0.));
#305=DIRECTION('',(5.52943107967607E-017,1.,0.));
#306=DIRECTION('',(-0.51998794185302,-0.677661479394335,-0.519987941853021));
#307=DIRECTION('',(5.56001114095111E-017,0.,-1.));
#308=DIRECTION('',(0.793353340291235,-0.60876142900872,0.));
#309=DIRECTION('',(0.60876142900872,0.793353340291235,0.));
#310=DIRECTION('',(1.,0.,-1.4954512723938E-016));
#311=DIRECTION('',(0.,0.608761429008721,-0.793353340291235));
#312=DIRECTION('',(0.,0.793353340291235,0.608761429008721));
#313=DIRECTION('',(6.12323399573717E-017,1.,0.));
#314=DIRECTION('',(-1.,6.12323399573717E-017,0.));
#315=CARTESIAN_POINT('',(0.,0.,0.));
#316=CARTESIAN_POINT('CS1',(0.,0.,0.));
#317=CARTESIAN_POINT('CS2',(0.,0.,0.));
#318=CARTESIAN_POINT('',(-6.46184494801361E-014,-4.99999999999996,0.515000000000001));
#319=CARTESIAN_POINT('',(-6.41847686111419E-014,-4.99999999999996,0.515000000000001));
#320=CARTESIAN_POINT('',(-0.315000000000064,-4.45440399561576,0.515000000000001));
#321=CARTESIAN_POINT('',(-0.315000000000064,-4.45440399561576,-0.514999999999999));
#322=CARTESIAN_POINT('',(-0.315000000000064,-4.45440399561576,-0.514999999999999));
#323=CARTESIAN_POINT('',(-0.315000000000064,-4.45440399561576,-0.514999999999999));
#324=CARTESIAN_POINT('',(-6.45100292628875E-014,-4.99999999999996,-0.514999999999999));
#325=CARTESIAN_POINT('',(-6.45100292628875E-014,-4.99999999999996,-0.514999999999999));
#326=CARTESIAN_POINT('',(-0.315000000000064,-4.45440399561576,-0.563499999999999));
#327=CARTESIAN_POINT('',(0.314999999999936,-4.45440399561576,0.515000000000001));
#328=CARTESIAN_POINT('',(0.314999999999936,-4.45440399561576,0.515000000000001));
#329=CARTESIAN_POINT('',(-6.45100292628875E-014,-4.99999999999996,-0.514999999999999));
#330=CARTESIAN_POINT('',(0.314999999999936,-4.45440399561576,-0.514999999999999));
#331=CARTESIAN_POINT('',(0.314999999999936,-4.45440399561576,-0.514999999999999));
#332=CARTESIAN_POINT('',(-6.44776539751081E-014,-4.99999999999996,-0.563499999999999));
#333=CARTESIAN_POINT('',(-0.315000000000064,-0.599483671506955,-0.514999999999999));
#334=CARTESIAN_POINT('',(-0.315000000000064,-0.599483671506955,-0.514999999999999));
#335=CARTESIAN_POINT('',(-0.315000000000064,-0.599483671506956,-0.514999999999999));
#336=CARTESIAN_POINT('',(0.314999999999936,-0.599483671506955,-0.514999999999999));
#337=CARTESIAN_POINT('',(0.314999999999936,-4.45440399561576,-0.514999999999999));
#338=CARTESIAN_POINT('',(-0.433500000000058,-0.599483671506955,-0.514999999999999));
#339=CARTESIAN_POINT('',(0.314999999999936,-0.599483671506956,-0.514999999999999));
#340=CARTESIAN_POINT('',(0.314999999999936,-0.534322402864852,-0.565000000000032));
#341=CARTESIAN_POINT('',(-0.315000000000064,-0.534322402864894,-0.565));
#342=CARTESIAN_POINT('',(-0.315000000000064,-0.534322402864894,-0.565));
#343=CARTESIAN_POINT('',(-0.725000000000064,6.80305789776503E-017,-0.975));
#344=CARTESIAN_POINT('',(-0.725000000000064,6.80305789776503E-017,-0.975));
#345=CARTESIAN_POINT('',(0.724999999999936,-1.09758969373582E-015,-0.974999999999999));
#346=CARTESIAN_POINT('',(0.724999999999936,4.24031508676874E-014,-0.975000000000033));
#347=CARTESIAN_POINT('',(0.314999999999936,-0.534322402864852,-0.565000000000032));
#348=CARTESIAN_POINT('',(-0.802500000000057,-1.09758969373582E-015,-0.974999999999999));
#349=CARTESIAN_POINT('',(-0.315000000000064,-0.534322402864894,0.565000000000002));
#350=CARTESIAN_POINT('',(-0.315000000000064,-0.534322402864894,0.565000000000002));
#351=CARTESIAN_POINT('',(-0.725000000000063,3.97311692527603E-017,0.975000000000001));
#352=CARTESIAN_POINT('',(-0.725000000000063,8.87868929381909E-017,-0.975));
#353=CARTESIAN_POINT('',(-0.315000000000064,-0.534322402864894,-0.565));
#354=CARTESIAN_POINT('',(-0.725000000000063,8.87868929381909E-017,-1.));
#355=CARTESIAN_POINT('',(-0.315000000000064,-0.599483671506955,0.515000000000001));
#356=CARTESIAN_POINT('',(-0.315000000000064,-0.599483671506955,0.515000000000001));
#357=CARTESIAN_POINT('',(-0.315000000000064,-4.45440399561576,0.515000000000001));
#358=CARTESIAN_POINT('',(-0.315000000000064,-0.534322402864894,-0.6085));
#359=CARTESIAN_POINT('',(-0.315000000000064,-0.599483671506955,0.515000000000001));
#360=CARTESIAN_POINT('',(0.314999999999936,-0.599483671506955,0.515000000000001));
#361=CARTESIAN_POINT('',(0.314999999999937,-0.599483671506955,0.515000000000001));
#362=CARTESIAN_POINT('',(-0.433500000000058,-5.5,0.515000000000001));
#363=CARTESIAN_POINT('',(0.314999999999936,-0.534322402864852,0.565000000000034));
#364=CARTESIAN_POINT('',(0.314999999999936,-0.534322402864852,0.565000000000034));
#365=CARTESIAN_POINT('',(0.314999999999936,-0.534322402864852,-0.565000000000032));
#366=CARTESIAN_POINT('',(0.314999999999936,-4.45440399561576,-0.608500000000029));
#367=CARTESIAN_POINT('',(0.724999999999936,4.26356079688588E-014,0.975000000000034));
#368=CARTESIAN_POINT('',(0.724999999999936,4.26356079688588E-014,0.975000000000034));
#369=CARTESIAN_POINT('',(0.724999999999967,0.,0.975000000000034));
#370=CARTESIAN_POINT('',(0.314999999999936,-0.534322402864852,-1.));
#371=CARTESIAN_POINT('',(-0.725000000000064,0.,0.975000000000001));
#372=CARTESIAN_POINT('',(-0.802500000000057,-0.599483671506955,0.515000000000001));
#373=CARTESIAN_POINT('',(0.724999999999967,0.,-1.));
#374=MECHANICAL_DESIGN_GEOMETRIC_PRESENTATION_REPRESENTATION('',(#241,#242,
#243),#375);
#375=(
GEOMETRIC_REPRESENTATION_CONTEXT(3)
GLOBAL_UNCERTAINTY_ASSIGNED_CONTEXT((#376))
GLOBAL_UNIT_ASSIGNED_CONTEXT((#382,#378,#377))
REPRESENTATION_CONTEXT('100120269ugm000_b','TOP_LEVEL_ASSEMBLY_PART')
);
#376=UNCERTAINTY_MEASURE_WITH_UNIT(LENGTH_MEASURE(2.E-005),#382,
'DISTANCE_ACCURACY_VALUE','Maximum Tolerance applied to model');
#377=(
NAMED_UNIT(*)
SI_UNIT($,.STERADIAN.)
SOLID_ANGLE_UNIT()
);
#378=(
CONVERSION_BASED_UNIT('DEGREE',#380)
NAMED_UNIT(#379)
PLANE_ANGLE_UNIT()
);
#379=DIMENSIONAL_EXPONENTS(0.,0.,0.,0.,0.,0.,0.);
#380=PLANE_ANGLE_MEASURE_WITH_UNIT(PLANE_ANGLE_MEASURE(0.0174532925),#381);
#381=(
NAMED_UNIT(*)
PLANE_ANGLE_UNIT()
SI_UNIT($,.RADIAN.)
);
#382=(
LENGTH_UNIT()
NAMED_UNIT(*)
SI_UNIT(.MILLI.,.METRE.)
);
ENDSEC;
END-ISO-10303-21;
