ISO-10303-21;
HEADER;
/* Generated by software containing ST-Developer
 * from STEP Tools, Inc. (www.steptools.com) 
 */
/* OPTION: using custom schema-name function */

FILE_DESCRIPTION(
/* description */ (''),
/* implementation_level */ '2;1');

FILE_NAME(
/* name */ '100070783ugm000_b.stp',
/* time_stamp */ '2016-09-27T09:39:00+02:00',
/* author */ (''),
/* organization */ (''),
/* preprocessor_version */ 'ST-DEVELOPER v16',
/* originating_system */ 'SIEMENS PLM Software NX 10.0',
/* authorisation */ '');

FILE_SCHEMA (('AUTOMOTIVE_DESIGN { 1 0 10303 214 3 1 1 1 }'));
ENDSEC;

DATA;
#10=PROPERTY_DEFINITION_REPRESENTATION(#14,#12);
#11=PROPERTY_DEFINITION_REPRESENTATION(#15,#13);
#12=REPRESENTATION('',(#16),#445);
#13=REPRESENTATION('',(#17),#445);
#14=PROPERTY_DEFINITION('pmi validation property','',#21);
#15=PROPERTY_DEFINITION('pmi validation property','',#21);
#16=VALUE_REPRESENTATION_ITEM('number of annotations',COUNT_MEASURE(0.));
#17=VALUE_REPRESENTATION_ITEM('number of views',COUNT_MEASURE(0.));
#18=SHAPE_REPRESENTATION_RELATIONSHIP('None',
'relationship between 100070783ugm000_b-None and 100070783ugm000_b-Non
e',#30,#19);
#19=ADVANCED_BREP_SHAPE_REPRESENTATION('100070783ugm000_b-None',(#40),#445);
#20=SHAPE_DEFINITION_REPRESENTATION(#21,#30);
#21=PRODUCT_DEFINITION_SHAPE('','',#22);
#22=PRODUCT_DEFINITION(' ','',#24,#23);
#23=PRODUCT_DEFINITION_CONTEXT('part definition',#29,'design');
#24=PRODUCT_DEFINITION_FORMATION_WITH_SPECIFIED_SOURCE(' ',' ',#26,
 .NOT_KNOWN.);
#25=PRODUCT_RELATED_PRODUCT_CATEGORY('part','',(#26));
#26=PRODUCT('100070783ugm000_b','100070783ugm000_b',' ',(#27));
#27=PRODUCT_CONTEXT(' ',#29,'mechanical');
#28=APPLICATION_PROTOCOL_DEFINITION('international standard',
'automotive_design',2010,#29);
#29=APPLICATION_CONTEXT(
'core data for automotive mechanical design processes');
#30=SHAPE_REPRESENTATION('100070783ugm000_b-None',(#278),#445);
#31=PRESENTATION_LAYER_ASSIGNMENT('1','Layer 1',(#40));
#32=STYLED_ITEM('',(#33),#40);
#33=PRESENTATION_STYLE_ASSIGNMENT((#34));
#34=SURFACE_STYLE_USAGE(.BOTH.,#35);
#35=SURFACE_SIDE_STYLE('',(#36));
#36=SURFACE_STYLE_FILL_AREA(#37);
#37=FILL_AREA_STYLE('',(#38));
#38=FILL_AREA_STYLE_COLOUR('',#39);
#39=COLOUR_RGB('Orange',1.,0.6,0.);
#40=MANIFOLD_SOLID_BREP('',#41);
#41=CLOSED_SHELL('',(#101,#102,#103,#104,#105,#106,#107,#108,#109,#110,
#111,#112,#113,#114,#115,#116,#117));
#42=PLANE('',#289);
#43=PLANE('',#290);
#44=PLANE('',#291);
#45=PLANE('',#292);
#46=PLANE('',#293);
#47=PLANE('',#294);
#48=PLANE('',#295);
#49=PLANE('',#297);
#50=PLANE('',#301);
#51=PLANE('',#304);
#52=FACE_OUTER_BOUND('',#149,.T.);
#53=FACE_OUTER_BOUND('',#150,.T.);
#54=FACE_OUTER_BOUND('',#151,.T.);
#55=FACE_OUTER_BOUND('',#152,.T.);
#56=FACE_OUTER_BOUND('',#153,.T.);
#57=FACE_OUTER_BOUND('',#156,.T.);
#58=FACE_OUTER_BOUND('',#165,.T.);
#59=LINE('',#394,#77);
#60=LINE('',#397,#78);
#61=LINE('',#399,#79);
#62=LINE('',#401,#80);
#63=LINE('',#403,#81);
#64=LINE('',#406,#82);
#65=LINE('',#407,#83);
#66=LINE('',#409,#84);
#67=LINE('',#412,#85);
#68=LINE('',#413,#86);
#69=LINE('',#415,#87);
#70=LINE('',#418,#88);
#71=LINE('',#419,#89);
#72=LINE('',#421,#90);
#73=LINE('',#424,#91);
#74=LINE('',#425,#92);
#75=LINE('',#427,#93);
#76=LINE('',#429,#94);
#77=VECTOR('',#327,1.);
#78=VECTOR('',#328,1.);
#79=VECTOR('',#329,1.);
#80=VECTOR('',#330,1.);
#81=VECTOR('',#333,1.);
#82=VECTOR('',#334,1.);
#83=VECTOR('',#335,1.);
#84=VECTOR('',#338,1.);
#85=VECTOR('',#339,1.);
#86=VECTOR('',#340,1.);
#87=VECTOR('',#343,1.);
#88=VECTOR('',#344,1.);
#89=VECTOR('',#345,1.);
#90=VECTOR('',#348,1.);
#91=VECTOR('',#349,1.);
#92=VECTOR('',#350,1.);
#93=VECTOR('',#353,1.);
#94=VECTOR('',#356,1.);
#95=CYLINDRICAL_SURFACE('',#284,2.425);
#96=CYLINDRICAL_SURFACE('',#288,1.5);
#97=CYLINDRICAL_SURFACE('',#299,1.7);
#98=CYLINDRICAL_SURFACE('',#303,1.5);
#99=CONICAL_SURFACE('',#282,0.721090460370032,25.6621800993466);
#100=CONICAL_SURFACE('',#286,1.5,15.);
#101=ADVANCED_FACE('',(#120,#121),#118,.T.);
#102=ADVANCED_FACE('',(#122,#123),#99,.T.);
#103=ADVANCED_FACE('',(#124,#125),#95,.T.);
#104=ADVANCED_FACE('',(#126,#127),#100,.T.);
#105=ADVANCED_FACE('',(#128,#129),#96,.T.);
#106=ADVANCED_FACE('',(#52),#42,.F.);
#107=ADVANCED_FACE('',(#53),#43,.F.);
#108=ADVANCED_FACE('',(#54),#44,.F.);
#109=ADVANCED_FACE('',(#55),#45,.F.);
#110=ADVANCED_FACE('',(#56),#46,.F.);
#111=ADVANCED_FACE('',(#130,#131),#47,.T.);
#112=ADVANCED_FACE('',(#57),#48,.F.);
#113=ADVANCED_FACE('',(#132,#133),#49,.T.);
#114=ADVANCED_FACE('',(#134,#135),#97,.T.);
#115=ADVANCED_FACE('',(#136,#137),#50,.T.);
#116=ADVANCED_FACE('',(#138,#139),#98,.T.);
#117=ADVANCED_FACE('',(#58),#51,.T.);
#118=SPHERICAL_SURFACE('',#280,0.799999999999985);
#119=VERTEX_LOOP('',#221);
#120=FACE_BOUND('',#140,.T.);
#121=FACE_BOUND('',#119,.T.);
#122=FACE_BOUND('',#141,.T.);
#123=FACE_BOUND('',#142,.T.);
#124=FACE_BOUND('',#143,.T.);
#125=FACE_BOUND('',#144,.T.);
#126=FACE_BOUND('',#145,.T.);
#127=FACE_BOUND('',#146,.T.);
#128=FACE_BOUND('',#147,.T.);
#129=FACE_BOUND('',#148,.T.);
#130=FACE_BOUND('',#154,.T.);
#131=FACE_BOUND('',#155,.T.);
#132=FACE_BOUND('',#157,.T.);
#133=FACE_BOUND('',#158,.T.);
#134=FACE_BOUND('',#159,.T.);
#135=FACE_BOUND('',#160,.T.);
#136=FACE_BOUND('',#161,.T.);
#137=FACE_BOUND('',#162,.T.);
#138=FACE_BOUND('',#163,.T.);
#139=FACE_BOUND('',#164,.T.);
#140=EDGE_LOOP('',(#166));
#141=EDGE_LOOP('',(#167));
#142=EDGE_LOOP('',(#168));
#143=EDGE_LOOP('',(#169));
#144=EDGE_LOOP('',(#170));
#145=EDGE_LOOP('',(#171));
#146=EDGE_LOOP('',(#172));
#147=EDGE_LOOP('',(#173));
#148=EDGE_LOOP('',(#174));
#149=EDGE_LOOP('',(#175,#176,#177,#178));
#150=EDGE_LOOP('',(#179,#180,#181,#182));
#151=EDGE_LOOP('',(#183,#184,#185,#186));
#152=EDGE_LOOP('',(#187,#188,#189,#190));
#153=EDGE_LOOP('',(#191,#192,#193,#194));
#154=EDGE_LOOP('',(#195));
#155=EDGE_LOOP('',(#196,#197,#198,#199,#200,#201));
#156=EDGE_LOOP('',(#202,#203,#204,#205));
#157=EDGE_LOOP('',(#206));
#158=EDGE_LOOP('',(#207,#208,#209,#210,#211,#212));
#159=EDGE_LOOP('',(#213));
#160=EDGE_LOOP('',(#214));
#161=EDGE_LOOP('',(#215));
#162=EDGE_LOOP('',(#216));
#163=EDGE_LOOP('',(#217));
#164=EDGE_LOOP('',(#218));
#165=EDGE_LOOP('',(#219));
#166=ORIENTED_EDGE('',*,*,#242,.F.);
#167=ORIENTED_EDGE('',*,*,#243,.F.);
#168=ORIENTED_EDGE('',*,*,#242,.T.);
#169=ORIENTED_EDGE('',*,*,#244,.F.);
#170=ORIENTED_EDGE('',*,*,#243,.T.);
#171=ORIENTED_EDGE('',*,*,#245,.F.);
#172=ORIENTED_EDGE('',*,*,#244,.T.);
#173=ORIENTED_EDGE('',*,*,#246,.F.);
#174=ORIENTED_EDGE('',*,*,#245,.T.);
#175=ORIENTED_EDGE('',*,*,#247,.F.);
#176=ORIENTED_EDGE('',*,*,#248,.F.);
#177=ORIENTED_EDGE('',*,*,#249,.F.);
#178=ORIENTED_EDGE('',*,*,#250,.F.);
#179=ORIENTED_EDGE('',*,*,#251,.F.);
#180=ORIENTED_EDGE('',*,*,#252,.F.);
#181=ORIENTED_EDGE('',*,*,#247,.T.);
#182=ORIENTED_EDGE('',*,*,#253,.F.);
#183=ORIENTED_EDGE('',*,*,#254,.F.);
#184=ORIENTED_EDGE('',*,*,#255,.F.);
#185=ORIENTED_EDGE('',*,*,#251,.T.);
#186=ORIENTED_EDGE('',*,*,#256,.F.);
#187=ORIENTED_EDGE('',*,*,#257,.F.);
#188=ORIENTED_EDGE('',*,*,#258,.F.);
#189=ORIENTED_EDGE('',*,*,#254,.T.);
#190=ORIENTED_EDGE('',*,*,#259,.F.);
#191=ORIENTED_EDGE('',*,*,#260,.F.);
#192=ORIENTED_EDGE('',*,*,#261,.F.);
#193=ORIENTED_EDGE('',*,*,#257,.T.);
#194=ORIENTED_EDGE('',*,*,#262,.F.);
#195=ORIENTED_EDGE('',*,*,#246,.T.);
#196=ORIENTED_EDGE('',*,*,#263,.T.);
#197=ORIENTED_EDGE('',*,*,#262,.T.);
#198=ORIENTED_EDGE('',*,*,#259,.T.);
#199=ORIENTED_EDGE('',*,*,#256,.T.);
#200=ORIENTED_EDGE('',*,*,#253,.T.);
#201=ORIENTED_EDGE('',*,*,#250,.T.);
#202=ORIENTED_EDGE('',*,*,#249,.T.);
#203=ORIENTED_EDGE('',*,*,#264,.F.);
#204=ORIENTED_EDGE('',*,*,#260,.T.);
#205=ORIENTED_EDGE('',*,*,#263,.F.);
#206=ORIENTED_EDGE('',*,*,#265,.F.);
#207=ORIENTED_EDGE('',*,*,#264,.T.);
#208=ORIENTED_EDGE('',*,*,#248,.T.);
#209=ORIENTED_EDGE('',*,*,#252,.T.);
#210=ORIENTED_EDGE('',*,*,#255,.T.);
#211=ORIENTED_EDGE('',*,*,#258,.T.);
#212=ORIENTED_EDGE('',*,*,#261,.T.);
#213=ORIENTED_EDGE('',*,*,#266,.F.);
#214=ORIENTED_EDGE('',*,*,#265,.T.);
#215=ORIENTED_EDGE('',*,*,#267,.F.);
#216=ORIENTED_EDGE('',*,*,#266,.T.);
#217=ORIENTED_EDGE('',*,*,#268,.T.);
#218=ORIENTED_EDGE('',*,*,#267,.T.);
#219=ORIENTED_EDGE('',*,*,#268,.F.);
#220=VERTEX_POINT('',#379);
#221=VERTEX_POINT('',#380);
#222=VERTEX_POINT('',#383);
#223=VERTEX_POINT('',#386);
#224=VERTEX_POINT('',#389);
#225=VERTEX_POINT('',#392);
#226=VERTEX_POINT('',#395);
#227=VERTEX_POINT('',#396);
#228=VERTEX_POINT('',#398);
#229=VERTEX_POINT('',#400);
#230=VERTEX_POINT('',#404);
#231=VERTEX_POINT('',#405);
#232=VERTEX_POINT('',#410);
#233=VERTEX_POINT('',#411);
#234=VERTEX_POINT('',#416);
#235=VERTEX_POINT('',#417);
#236=VERTEX_POINT('',#422);
#237=VERTEX_POINT('',#423);
#238=VERTEX_POINT('',#432);
#239=VERTEX_POINT('',#435);
#240=VERTEX_POINT('',#438);
#241=VERTEX_POINT('',#441);
#242=EDGE_CURVE('',#220,#220,#269,.T.);
#243=EDGE_CURVE('',#222,#222,#270,.T.);
#244=EDGE_CURVE('',#223,#223,#271,.T.);
#245=EDGE_CURVE('',#224,#224,#272,.T.);
#246=EDGE_CURVE('',#225,#225,#273,.T.);
#247=EDGE_CURVE('',#226,#227,#59,.T.);
#248=EDGE_CURVE('',#228,#226,#60,.T.);
#249=EDGE_CURVE('',#229,#228,#61,.T.);
#250=EDGE_CURVE('',#227,#229,#62,.T.);
#251=EDGE_CURVE('',#230,#231,#63,.T.);
#252=EDGE_CURVE('',#226,#230,#64,.T.);
#253=EDGE_CURVE('',#231,#227,#65,.T.);
#254=EDGE_CURVE('',#232,#233,#66,.T.);
#255=EDGE_CURVE('',#230,#232,#67,.T.);
#256=EDGE_CURVE('',#233,#231,#68,.T.);
#257=EDGE_CURVE('',#234,#235,#69,.T.);
#258=EDGE_CURVE('',#232,#234,#70,.T.);
#259=EDGE_CURVE('',#235,#233,#71,.T.);
#260=EDGE_CURVE('',#236,#237,#72,.T.);
#261=EDGE_CURVE('',#234,#236,#73,.T.);
#262=EDGE_CURVE('',#237,#235,#74,.T.);
#263=EDGE_CURVE('',#229,#237,#75,.T.);
#264=EDGE_CURVE('',#236,#228,#76,.T.);
#265=EDGE_CURVE('',#238,#238,#274,.T.);
#266=EDGE_CURVE('',#239,#239,#275,.T.);
#267=EDGE_CURVE('',#240,#240,#276,.T.);
#268=EDGE_CURVE('',#241,#241,#277,.T.);
#269=CIRCLE('',#279,0.721090460370034);
#270=CIRCLE('',#281,2.425);
#271=CIRCLE('',#283,2.425);
#272=CIRCLE('',#285,1.5);
#273=CIRCLE('',#287,1.5);
#274=CIRCLE('',#296,1.7);
#275=CIRCLE('',#298,1.7);
#276=CIRCLE('',#300,1.5);
#277=CIRCLE('',#302,1.5);
#278=AXIS2_PLACEMENT_3D('',#377,#305,#306);
#279=AXIS2_PLACEMENT_3D('',#378,#307,#308);
#280=AXIS2_PLACEMENT_3D('',#381,#309,#310);
#281=AXIS2_PLACEMENT_3D('',#382,#311,#312);
#282=AXIS2_PLACEMENT_3D('',#384,#313,#314);
#283=AXIS2_PLACEMENT_3D('',#385,#315,#316);
#284=AXIS2_PLACEMENT_3D('',#387,#317,#318);
#285=AXIS2_PLACEMENT_3D('',#388,#319,#320);
#286=AXIS2_PLACEMENT_3D('',#390,#321,#322);
#287=AXIS2_PLACEMENT_3D('',#391,#323,#324);
#288=AXIS2_PLACEMENT_3D('',#393,#325,#326);
#289=AXIS2_PLACEMENT_3D('',#402,#331,#332);
#290=AXIS2_PLACEMENT_3D('',#408,#336,#337);
#291=AXIS2_PLACEMENT_3D('',#414,#341,#342);
#292=AXIS2_PLACEMENT_3D('',#420,#346,#347);
#293=AXIS2_PLACEMENT_3D('',#426,#351,#352);
#294=AXIS2_PLACEMENT_3D('',#428,#354,#355);
#295=AXIS2_PLACEMENT_3D('',#430,#357,#358);
#296=AXIS2_PLACEMENT_3D('',#431,#359,#360);
#297=AXIS2_PLACEMENT_3D('',#433,#361,#362);
#298=AXIS2_PLACEMENT_3D('',#434,#363,#364);
#299=AXIS2_PLACEMENT_3D('',#436,#365,#366);
#300=AXIS2_PLACEMENT_3D('',#437,#367,#368);
#301=AXIS2_PLACEMENT_3D('',#439,#369,#370);
#302=AXIS2_PLACEMENT_3D('',#440,#371,#372);
#303=AXIS2_PLACEMENT_3D('',#442,#373,#374);
#304=AXIS2_PLACEMENT_3D('',#443,#375,#376);
#305=DIRECTION('',(0.,0.,1.));
#306=DIRECTION('',(1.,0.,0.));
#307=DIRECTION('',(0.,-1.,0.));
#308=DIRECTION('',(1.,0.,0.));
#309=DIRECTION('',(-6.2605399464422E-15,-1.,0.));
#310=DIRECTION('',(1.,-8.67361737988419E-15,0.));
#311=DIRECTION('',(0.,-1.,0.));
#312=DIRECTION('',(1.,0.,-1.16852900812327E-16));
#313=DIRECTION('',(-1.01820534978349E-15,-1.,1.76358339836344E-15));
#314=DIRECTION('',(1.,-8.94083517090646E-16,-2.64407782913347E-16));
#315=DIRECTION('',(4.53578065515222E-16,-1.,7.85620254671169E-16));
#316=DIRECTION('',(1.,0.,1.07849179080976E-16));
#317=DIRECTION('',(-1.60251858371513E-15,-1.,1.15648231731787E-15));
#318=DIRECTION('',(1.,-1.43069977400149E-15,-1.16852900812327E-16));
#319=DIRECTION('',(0.,-1.,0.));
#320=DIRECTION('',(1.,0.,-1.14174747038688E-16));
#321=DIRECTION('',(5.05654657475932E-16,1.,9.70766429338898E-16));
#322=DIRECTION('',(1.,-4.120342742942E-16,-1.76547085545728E-31));
#323=DIRECTION('',(-5.13992141030166E-16,-1.,-8.90260502955355E-16));
#324=DIRECTION('',(1.,0.,-8.5665356838361E-17));
#325=DIRECTION('',(0.,-1.,0.));
#326=DIRECTION('',(1.,0.,-1.14174747038688E-16));
#327=DIRECTION('',(1.97127667724637E-16,1.,1.97127667724637E-16));
#328=DIRECTION('',(-4.29232742496331E-16,0.,1.));
#329=DIRECTION('',(0.,-1.,0.));
#330=DIRECTION('',(3.21924556872248E-16,0.,-1.));
#331=DIRECTION('',(-1.,-1.2426385931066E-16,-4.29232742496331E-16));
#332=DIRECTION('',(-4.2934406030426E-16,0.,1.));
#333=DIRECTION('',(-1.75084540398839E-31,1.,3.94255335449274E-16));
#334=DIRECTION('',(-0.866025403784439,0.,0.5));
#335=DIRECTION('',(0.866025403784439,0.,-0.5));
#336=DIRECTION('',(-0.5,1.15939759122993E-16,-0.866025403784439));
#337=DIRECTION('',(-0.866025403784439,0.,0.5));
#338=DIRECTION('',(0.,1.,-1.97127667724637E-16));
#339=DIRECTION('',(-0.866025403784438,0.,-0.5));
#340=DIRECTION('',(0.866025403784438,0.,0.5));
#341=DIRECTION('',(0.5,0.,-0.866025403784438));
#342=DIRECTION('',(-0.866025403784438,0.,-0.5));
#343=DIRECTION('',(-1.97127667724637E-16,1.,0.));
#344=DIRECTION('',(6.43849113744496E-16,0.,-1.));
#345=DIRECTION('',(-6.43849113744496E-16,0.,1.));
#346=DIRECTION('',(1.,0.,5.36540928120414E-16));
#347=DIRECTION('',(5.36463234945828E-16,0.,-1.));
#348=DIRECTION('',(3.50169080797679E-31,1.,0.));
#349=DIRECTION('',(0.866025403784439,0.,-0.499999999999999));
#350=DIRECTION('',(-0.866025403784439,0.,0.499999999999999));
#351=DIRECTION('',(0.499999999999999,-3.10659648276648E-17,0.866025403784439));
#352=DIRECTION('',(0.866025403784439,0.,-0.499999999999999));
#353=DIRECTION('',(-0.866025403784438,0.,-0.500000000000001));
#354=DIRECTION('',(-2.15226237714244E-16,1.,0.));
#355=DIRECTION('',(0.,0.,1.));
#356=DIRECTION('',(0.866025403784438,0.,0.500000000000001));
#357=DIRECTION('',(-0.500000000000001,1.07615658935327E-16,0.866025403784438));
#358=DIRECTION('',(0.866025403784438,0.,0.500000000000001));
#359=DIRECTION('',(-3.33847688608257E-16,-1.,-5.78241158658935E-16));
#360=DIRECTION('',(1.,0.,0.));
#361=DIRECTION('',(2.15226237714244E-16,-1.,0.));
#362=DIRECTION('',(0.,0.,1.));
#363=DIRECTION('',(6.80283716069336E-16,-1.,-3.9276198659795E-16));
#364=DIRECTION('',(1.,5.10212787052002E-16,7.55870795632596E-17));
#365=DIRECTION('',(-3.21492291205202E-16,-1.,-5.78241158658935E-16));
#366=DIRECTION('',(1.,0.,0.));
#367=DIRECTION('',(-2.94571489948462E-16,-1.,-5.10212787052002E-16));
#368=DIRECTION('',(1.,-5.78241158658936E-16,0.));
#369=DIRECTION('',(0.,-1.,0.));
#370=DIRECTION('',(0.,0.,1.));
#371=DIRECTION('',(0.,1.,0.));
#372=DIRECTION('',(1.,0.,-9.00375506562356E-16));
#373=DIRECTION('',(-7.78081316663577E-17,-1.,-2.55106393526001E-16));
#374=DIRECTION('',(1.,0.,0.));
#375=DIRECTION('',(0.,-1.,0.));
#376=DIRECTION('',(0.,0.,1.));
#377=CARTESIAN_POINT('',(0.,0.,0.));
#378=CARTESIAN_POINT('',(5.96311194867027E-15,34.5464513644992,0.));
#379=CARTESIAN_POINT('',(0.72109046037004,34.5464513644992,0.));
#380=CARTESIAN_POINT('',(6.17012206701283E-15,35.,0.));
#381=CARTESIAN_POINT('',(1.70219741080224E-14,34.2,0.));
#382=CARTESIAN_POINT('',(3.90312782094782E-15,31.,2.83368284469892E-16));
#383=CARTESIAN_POINT('',(2.42500000000001,31.,0.));
#384=CARTESIAN_POINT('',(7.87704004195883E-15,34.5464513644992,-2.71130597303142E-15));
#385=CARTESIAN_POINT('',(4.77048955893622E-15,25.,-2.61534259271366E-16));
#386=CARTESIAN_POINT('',(2.42500000000001,25.,0.));
#387=CARTESIAN_POINT('',(8.7106835720932E-15,31.,-3.18607866748372E-15));
#388=CARTESIAN_POINT('',(3.25260651745651E-15,21.5478530029988,1.71262120558032E-16));
#389=CARTESIAN_POINT('',(1.5,21.5478530029988,0.));
#390=CARTESIAN_POINT('',(3.89769245527361E-15,21.5478530029988,-1.67561420691594E-15));
#391=CARTESIAN_POINT('',(2.16840434497101E-15,12.,1.28498035257541E-16));
#392=CARTESIAN_POINT('',(1.5,12.,0.));
#393=CARTESIAN_POINT('',(2.81892564846231E-15,21.5478530029988,1.71262120558032E-16));
#394=CARTESIAN_POINT('',(3.5,9.8,2.02072594216369));
#395=CARTESIAN_POINT('',(3.5,9.8,2.02072594216369));
#396=CARTESIAN_POINT('',(3.5,12.,2.02072594216369));
#397=CARTESIAN_POINT('',(3.5,9.8,-2.02072594216369));
#398=CARTESIAN_POINT('',(3.5,9.8,-2.02072594216369));
#399=CARTESIAN_POINT('',(3.5,12.,-2.02072594216369));
#400=CARTESIAN_POINT('',(3.5,12.,-2.02072594216369));
#401=CARTESIAN_POINT('',(3.5,12.,2.02072594216369));
#402=CARTESIAN_POINT('',(3.5,8.82,-2.02072594216369));
#403=CARTESIAN_POINT('',(-1.30104260698261E-15,9.8,4.04145188432738));
#404=CARTESIAN_POINT('',(-1.30104260698261E-15,9.8,4.04145188432738));
#405=CARTESIAN_POINT('',(-1.30104260698261E-15,12.,4.04145188432738));
#406=CARTESIAN_POINT('',(3.5,9.8,2.02072594216369));
#407=CARTESIAN_POINT('',(-1.30104260698261E-15,12.,4.04145188432738));
#408=CARTESIAN_POINT('',(3.5,8.82000000000001,2.02072594216369));
#409=CARTESIAN_POINT('',(-3.5,9.8,2.02072594216369));
#410=CARTESIAN_POINT('',(-3.5,9.8,2.02072594216369));
#411=CARTESIAN_POINT('',(-3.5,12.,2.02072594216369));
#412=CARTESIAN_POINT('',(-1.30104260698261E-15,9.8,4.04145188432738));
#413=CARTESIAN_POINT('',(-3.5,12.,2.02072594216369));
#414=CARTESIAN_POINT('',(-1.30104260698261E-15,8.82,4.04145188432738));
#415=CARTESIAN_POINT('',(-3.5,9.8,-2.02072594216369));
#416=CARTESIAN_POINT('',(-3.5,9.8,-2.02072594216369));
#417=CARTESIAN_POINT('',(-3.5,12.,-2.02072594216369));
#418=CARTESIAN_POINT('',(-3.5,9.8,2.02072594216369));
#419=CARTESIAN_POINT('',(-3.5,12.,-2.02072594216369));
#420=CARTESIAN_POINT('',(-3.5,8.82,2.02072594216369));
#421=CARTESIAN_POINT('',(5.20417042793042E-15,9.8,-4.04145188432738));
#422=CARTESIAN_POINT('',(4.55364912443912E-15,9.8,-4.04145188432738));
#423=CARTESIAN_POINT('',(4.55364912443912E-15,12.,-4.04145188432738));
#424=CARTESIAN_POINT('',(-3.5,9.8,-2.02072594216369));
#425=CARTESIAN_POINT('',(5.20417042793042E-15,12.,-4.04145188432738));
#426=CARTESIAN_POINT('',(-3.5,8.82,-2.02072594216369));
#427=CARTESIAN_POINT('',(3.5,12.,-2.02072594216369));
#428=CARTESIAN_POINT('',(-4.03,12.,-4.51730669589465));
#429=CARTESIAN_POINT('',(4.55364912443912E-15,9.8,-4.04145188432738));
#430=CARTESIAN_POINT('',(4.55364912443912E-15,8.82,-4.04145188432738));
#431=CARTESIAN_POINT('',(1.95156391047391E-15,9.8,0.));
#432=CARTESIAN_POINT('',(1.7,9.8,0.));
#433=CARTESIAN_POINT('',(4.03,9.8,-4.51730669589464));
#434=CARTESIAN_POINT('',(1.30104260698261E-15,6.8,-1.28498035257541E-16));
#435=CARTESIAN_POINT('',(1.7,6.8,0.));
#436=CARTESIAN_POINT('',(2.00012147828751E-15,9.8,8.67361737988404E-16));
#437=CARTESIAN_POINT('',(1.30104260698261E-15,6.8,0.));
#438=CARTESIAN_POINT('',(1.5,6.8,0.));
#439=CARTESIAN_POINT('',(1.87,6.8,-1.87));
#440=CARTESIAN_POINT('',(-1.51788304147971E-15,0.,1.35056325984353E-15));
#441=CARTESIAN_POINT('',(1.5,0.,0.));
#442=CARTESIAN_POINT('',(4.81388082162717E-16,6.8,8.67361737988403E-16));
#443=CARTESIAN_POINT('',(1.65,0.,-1.65));
#444=MECHANICAL_DESIGN_GEOMETRIC_PRESENTATION_REPRESENTATION('',(#32),#445);
#445=(
GEOMETRIC_REPRESENTATION_CONTEXT(3)
GLOBAL_UNCERTAINTY_ASSIGNED_CONTEXT((#446))
GLOBAL_UNIT_ASSIGNED_CONTEXT((#452,#448,#447))
REPRESENTATION_CONTEXT('100070783ugm000_b','TOP_LEVEL_ASSEMBLY_PART')
);
#446=UNCERTAINTY_MEASURE_WITH_UNIT(LENGTH_MEASURE(2.E-5),#452,
'DISTANCE_ACCURACY_VALUE','Maximum Tolerance applied to model');
#447=(
NAMED_UNIT(*)
SI_UNIT($,.STERADIAN.)
SOLID_ANGLE_UNIT()
);
#448=(
CONVERSION_BASED_UNIT('DEGREE',#450)
NAMED_UNIT(#449)
PLANE_ANGLE_UNIT()
);
#449=DIMENSIONAL_EXPONENTS(0.,0.,0.,0.,0.,0.,0.);
#450=PLANE_ANGLE_MEASURE_WITH_UNIT(PLANE_ANGLE_MEASURE(0.0174532925),#451);
#451=(
NAMED_UNIT(*)
PLANE_ANGLE_UNIT()
SI_UNIT($,.RADIAN.)
);
#452=(
LENGTH_UNIT()
NAMED_UNIT(*)
SI_UNIT(.MILLI.,.METRE.)
);
ENDSEC;
END-ISO-10303-21;
